  0
SECTION
  2
HEADER
  9
$ACADVER
  1
AC1024
  9
$ACADMAINTVER
 70
     6
  9
$DWGCODEPAGE
  3
ANSI_1252
  9
$LASTSAVEDBY
  1
kirk
  9
$INSBASE
 10
0.0
 20
0.0
 30
0.0
  9
$EXTMIN
 10
-375.0
 20
-334.808
 30
0.0
  9
$EXTMAX
 10
375.0
 20
334.808
 30
0.0
  9
$LIMMIN
 10
0.0
 20
0.0
  9
$LIMMAX
 10
12.0
 20
9.0
  9
$ORTHOMODE
 70
     0
  9
$REGENMODE
 70
     1
  9
$FILLMODE
 70
     1
  9
$QTEXTMODE
 70
     0
  9
$MIRRTEXT
 70
     0
  9
$LTSCALE
 40
1.0
  9
$ATTMODE
 70
     1
  9
$TEXTSIZE
 40
0.2
  9
$TRACEWID
 40
0.05
  9
$TEXTSTYLE
  7
Standard
  9
$CLAYER
  8
0
  9
$CELTYPE
  6
ByLayer
  9
$CECOLOR
 62
   256
  9
$CELTSCALE
 40
1.0
  9
$DISPSILH
 70
     0
  9
$DIMSCALE
 40
1.0
  9
$DIMASZ
 40
2.5
  9
$DIMEXO
 40
0.625
  9
$DIMDLI
 40
5.0
  9
$DIMRND
 40
0.0
  9
$DIMDLE
 40
0.0
  9
$DIMEXE
 40
1.25
  9
$DIMTP
 40
0.0
  9
$DIMTM
 40
0.0
  9
$DIMTXT
 40
2.5
  9
$DIMCEN
 40
0.09
  9
$DIMTSZ
 40
0.0
  9
$DIMTOL
 70
     0
  9
$DIMLIM
 70
     0
  9
$DIMTIH
 70
     1
  9
$DIMTOH
 70
     1
  9
$DIMSE1
 70
     0
  9
$DIMSE2
 70
     0
  9
$DIMTAD
 70
     0
  9
$DIMZIN
 70
     8
  9
$DIMBLK
  1

  9
$DIMASO
 70
     1
  9
$DIMSHO
 70
     1
  9
$DIMPOST
  1

  9
$DIMAPOST
  1

  9
$DIMALT
 70
     0
  9
$DIMALTD
 70
     2
  9
$DIMALTF
 40
25.4
  9
$DIMLFAC
 40
1.0
  9
$DIMTOFL
 70
     0
  9
$DIMTVP
 40
0.0
  9
$DIMTIX
 70
     0
  9
$DIMSOXD
 70
     0
  9
$DIMSAH
 70
     0
  9
$DIMBLK1
  1

  9
$DIMBLK2
  1

  9
$DIMSTYLE
  2
Standard
  9
$DIMCLRD
 70
     0
  9
$DIMCLRE
 70
     0
  9
$DIMCLRT
 70
     0
  9
$DIMTFAC
 40
1.0
  9
$DIMGAP
 40
0.625
  9
$DIMJUST
 70
     0
  9
$DIMSD1
 70
     0
  9
$DIMSD2
 70
     0
  9
$DIMTOLJ
 70
     1
  9
$DIMTZIN
 70
     0
  9
$DIMALTZ
 70
     0
  9
$DIMALTTZ
 70
     0
  9
$DIMUPT
 70
     0
  9
$DIMDEC
 70
     4
  9
$DIMTDEC
 70
     4
  9
$DIMALTU
 70
     2
  9
$DIMALTTD
 70
     2
  9
$DIMTXSTY
  7
Standard
  9
$DIMAUNIT
 70
     0
  9
$DIMADEC
 70
     0
  9
$DIMALTRND
 40
0.0
  9
$DIMAZIN
 70
     2
  9
$DIMDSEP
 70
    46
  9
$DIMATFIT
 70
     3
  9
$DIMFRAC
 70
     0
  9
$DIMLDRBLK
  1

  9
$DIMLUNIT
 70
     2
  9
$DIMLWD
 70
    -2
  9
$DIMLWE
 70
    -2
  9
$DIMTMOVE
 70
     0
  9
$DIMFXL
 40
1.0
  9
$DIMFXLON
 70
     0
  9
$DIMJOGANG
 40
0.7853981633974483
  9
$DIMTFILL
 70
     0
  9
$DIMTFILLCLR
 70
     0
  9
$DIMARCSYM
 70
     0
  9
$DIMLTYPE
  6

  9
$DIMLTEX1
  6

  9
$DIMLTEX2
  6

  9
$DIMTXTDIRECTION
 70
     0
  9
$LUNITS
 70
     2
  9
$LUPREC
 70
     4
  9
$SKETCHINC
 40
0.1
  9
$FILLETRAD
 40
0.5
  9
$AUNITS
 70
     0
  9
$AUPREC
 70
     0
  9
$MENU
  1
.
  9
$ELEVATION
 40
0.0
  9
$PELEVATION
 40
0.0
  9
$THICKNESS
 40
0.0
  9
$LIMCHECK
 70
     0
  9
$CHAMFERA
 40
0.0
  9
$CHAMFERB
 40
0.0
  9
$CHAMFERC
 40
0.0
  9
$CHAMFERD
 40
0.0
  9
$SKPOLY
 70
     0
  9
$TDCREATE
 40
2459095.536842037
  9
$TDUCREATE
 40
2459095.49517537
  9
$TDUPDATE
 40
2459095.536842303
  9
$TDUUPDATE
 40
2459095.495175636
  9
$TDINDWG
 40
0.0000000116
  9
$TDUSRTIMER
 40
0.0000000116
  9
$USRTIMER
 70
     1
  9
$ANGBASE
 50
0.0
  9
$ANGDIR
 70
     0
  9
$PDMODE
 70
     0
  9
$PDSIZE
 40
0.0
  9
$PLINEWID
 40
0.0
  9
$SPLFRAME
 70
     0
  9
$SPLINETYPE
 70
     6
  9
$SPLINESEGS
 70
     8
  9
$HANDSEED
  5
49B
  9
$SURFTAB1
 70
     6
  9
$SURFTAB2
 70
     6
  9
$SURFTYPE
 70
     6
  9
$SURFU
 70
     6
  9
$SURFV
 70
     6
  9
$UCSBASE
  2

  9
$UCSNAME
  2

  9
$UCSORG
 10
0.0
 20
0.0
 30
0.0
  9
$UCSXDIR
 10
1.0
 20
0.0
 30
0.0
  9
$UCSYDIR
 10
0.0
 20
1.0
 30
0.0
  9
$UCSORTHOREF
  2

  9
$UCSORTHOVIEW
 70
     0
  9
$UCSORGTOP
 10
0.0
 20
0.0
 30
0.0
  9
$UCSORGBOTTOM
 10
0.0
 20
0.0
 30
0.0
  9
$UCSORGLEFT
 10
0.0
 20
0.0
 30
0.0
  9
$UCSORGRIGHT
 10
0.0
 20
0.0
 30
0.0
  9
$UCSORGFRONT
 10
0.0
 20
0.0
 30
0.0
  9
$UCSORGBACK
 10
0.0
 20
0.0
 30
0.0
  9
$PUCSBASE
  2

  9
$PUCSNAME
  2

  9
$PUCSORG
 10
0.0
 20
0.0
 30
0.0
  9
$PUCSXDIR
 10
1.0
 20
0.0
 30
0.0
  9
$PUCSYDIR
 10
0.0
 20
1.0
 30
0.0
  9
$PUCSORTHOREF
  2

  9
$PUCSORTHOVIEW
 70
     0
  9
$PUCSORGTOP
 10
0.0
 20
0.0
 30
0.0
  9
$PUCSORGBOTTOM
 10
0.0
 20
0.0
 30
0.0
  9
$PUCSORGLEFT
 10
0.0
 20
0.0
 30
0.0
  9
$PUCSORGRIGHT
 10
0.0
 20
0.0
 30
0.0
  9
$PUCSORGFRONT
 10
0.0
 20
0.0
 30
0.0
  9
$PUCSORGBACK
 10
0.0
 20
0.0
 30
0.0
  9
$USERI1
 70
     0
  9
$USERI2
 70
     0
  9
$USERI3
 70
     0
  9
$USERI4
 70
     0
  9
$USERI5
 70
     0
  9
$USERR1
 40
0.0
  9
$USERR2
 40
0.0
  9
$USERR3
 40
0.0
  9
$USERR4
 40
0.0
  9
$USERR5
 40
0.0
  9
$WORLDVIEW
 70
     1
  9
$SHADEDGE
 70
     3
  9
$SHADEDIF
 70
    70
  9
$TILEMODE
 70
     1
  9
$MAXACTVP
 70
    64
  9
$PINSBASE
 10
0.0
 20
0.0
 30
0.0
  9
$PLIMCHECK
 70
     0
  9
$PEXTMIN
 10
0.0
 20
0.0
 30
0.0
  9
$PEXTMAX
 10
0.0
 20
0.0
 30
0.0
  9
$PLIMMIN
 10
-20.0
 20
-7.5
  9
$PLIMMAX
 10
277.0
 20
202.5
  9
$UNITMODE
 70
     0
  9
$VISRETAIN
 70
     1
  9
$PLINEGEN
 70
     0
  9
$PSLTSCALE
 70
     1
  9
$TREEDEPTH
 70
  3020
  9
$CMLSTYLE
  2
Standard
  9
$CMLJUST
 70
     0
  9
$CMLSCALE
 40
1.0
  9
$PROXYGRAPHICS
 70
     1
  9
$MEASUREMENT
 70
     1
  9
$CELWEIGHT
370
    -1
  9
$ENDCAPS
280
     0
  9
$JOINSTYLE
280
     0
  9
$LWDISPLAY
290
     0
  9
$INSUNITS
 70
     0
  9
$HYPERLINKBASE
  1

  9
$STYLESHEET
  1

  9
$XEDIT
290
     1
  9
$CEPSNTYPE
380
     0
  9
$PSTYLEMODE
290
     1
  9
$FINGERPRINTGUID
  2
{70653679-7973-3663-7330-736272383831}
  9
$VERSIONGUID
  2
{FAEB1C32-E019-11D5-929B-00C0DF256EC4}
  9
$EXTNAMES
290
     1
  9
$PSVPSCALE
 40
0.0
  9
$OLESTARTUP
290
     0
  9
$SORTENTS
280
   127
  9
$INDEXCTL
280
     0
  9
$HIDETEXT
280
     1
  9
$XCLIPFRAME
280
     2
  9
$HALOGAP
280
     0
  9
$OBSCOLOR
 70
   257
  9
$OBSLTYPE
280
     0
  9
$INTERSECTIONDISPLAY
280
     0
  9
$INTERSECTIONCOLOR
 70
   257
  9
$DIMASSOC
280
     2
  9
$PROJECTNAME
  1

  9
$CAMERADISPLAY
290
     0
  9
$LENSLENGTH
 40
50.0
  9
$CAMERAHEIGHT
 40
0.0
  9
$STEPSPERSEC
 40
2.0
  9
$STEPSIZE
 40
6.0
  9
$3DDWFPREC
 40
2.0
  9
$PSOLWIDTH
 40
0.25
  9
$PSOLHEIGHT
 40
4.0
  9
$LOFTANG1
 40
1.570796326794897
  9
$LOFTANG2
 40
1.570796326794897
  9
$LOFTMAG1
 40
0.0
  9
$LOFTMAG2
 40
0.0
  9
$LOFTPARAM
 70
     7
  9
$LOFTNORMALS
280
     1
  9
$LATITUDE
 40
37.795
  9
$LONGITUDE
 40
-122.394
  9
$NORTHDIRECTION
 40
0.0
  9
$TIMEZONE
 70
 -8000
  9
$LIGHTGLYPHDISPLAY
280
     1
  9
$TILEMODELIGHTSYNCH
280
     1
  9
$CMATERIAL
347
3C6
  9
$SOLIDHIST
280
     0
  9
$SHOWHIST
280
     1
  9
$DWFFRAME
280
     2
  9
$DGNFRAME
280
     2
  9
$REALWORLDSCALE
290
     1
  9
$INTERFERECOLOR
 62
   256
  9
$CSHADOW
280
     0
  9
$SHADOWPLANELOCATION
 40
0.0
  0
ENDSEC
  0
SECTION
  2
CLASSES
  0
CLASS
  1
ACDBDICTIONARYWDFLT
  2
AcDbDictionaryWithDefault
  3
ObjectDBX Classes
 90
        0
 91
        3
280
     0
281
     0
  0
CLASS
  1
VISUALSTYLE
  2
AcDbVisualStyle
  3
ObjectDBX Classes
 90
     4095
 91
        3
280
     0
281
     0
  0
CLASS
  1
MATERIAL
  2
AcDbMaterial
  3
ObjectDBX Classes
 90
     1153
 91
        3
280
     0
281
     0
  0
CLASS
  1
SCALE
  2
AcDbScale
  3
ObjectDBX Classes
 90
     1153
 91
        3
280
     0
281
     0
  0
CLASS
  1
TABLESTYLE
  2
AcDbTableStyle
  3
ObjectDBX Classes
 90
     4095
 91
        3
280
     0
281
     0
  0
CLASS
  1
MLEADERSTYLE
  2
AcDbMLeaderStyle
  3
ACDB_MLEADERSTYLE_CLASS
 90
     4095
 91
        3
280
     0
281
     0
  0
CLASS
  1
SUN
  2
AcDbSun
  3
SCENEOE
 90
     1153
 91
        3
280
     0
281
     0
  0
CLASS
  1
DICTIONARYVAR
  2
AcDbDictionaryVar
  3
ObjectDBX Classes
 90
        0
 91
        3
280
     0
281
     0
  0
CLASS
  1
CELLSTYLEMAP
  2
AcDbCellStyleMap
  3
ObjectDBX Classes
 90
     1152
 91
        3
280
     0
281
     0
  0
ENDSEC
  0
SECTION
  2
TABLES
  0
TABLE
  2
VPORT
  5
38B
330
0
100
AcDbSymbolTable
 70
     1
  0
VPORT
  5
3AB
330
38B
100
AcDbSymbolTableRecord
100
AcDbViewportTableRecord
  2
*Active
 70
     0
 10
0.0
 20
0.0
 11
1.0
 21
1.0
 12
10.42990654205607
 22
4.5
 13
0.0
 23
0.0
 14
0.5
 24
0.5
 15
0.5
 25
0.5
 16
0.0
 26
0.0
 36
1.0
 17
0.0
 27
0.0
 37
0.0
 40
9.0
 41
1.972972972850329
 42
50.0
 43
0.0
 44
0.0
 50
0.0
 51
0.0
 71
     0
 72
   100
 73
     1
 74
     3
 75
     0
 76
     0
 77
     0
 78
     0
281
     0
 65
     1
110
0.0
120
0.0
130
0.0
111
1.0
121
0.0
131
0.0
112
0.0
122
1.0
132
0.0
 79
     0
146
0.0
348
3B1
 60
     3
 61
     5
292
     1
282
     1
141
0.0
142
0.0
 63
   250
361
3EF
  0
ENDTAB
  0
TABLE
  2
LTYPE
  5
388
330
0
100
AcDbSymbolTable
 70
    48
  0
LTYPE
  5
396
330
388
100
AcDbSymbolTableRecord
100
AcDbLinetypeTableRecord
  2
ByBlock
 70
     0
  3

 72
    65
 73
     0
 40
0.0
  0
LTYPE
  5
397
330
388
100
AcDbSymbolTableRecord
100
AcDbLinetypeTableRecord
  2
ByLayer
 70
     0
  3

 72
    65
 73
     0
 40
0.0
  0
LTYPE
  5
398
330
388
100
AcDbSymbolTableRecord
100
AcDbLinetypeTableRecord
  2
Continuous
 70
     0
  3
Solid line
 72
    65
 73
     0
 40
0.0
  0
LTYPE
  5
426
330
388
100
AcDbSymbolTableRecord
100
AcDbLinetypeTableRecord
  2
ACAD_ISO12W100
 70
     0
  3
ISO dash double-dot __ . . __ . . __ . . __ . . 
 72
    65
 73
     6
 40
21.0
 49
12.0
 74
     0
 49
-3.0
 74
     0
 49
0.0
 74
     0
 49
-3.0
 74
     0
 49
0.0
 74
     0
 49
-3.0
 74
     0
  0
LTYPE
  5
427
330
388
100
AcDbSymbolTableRecord
100
AcDbLinetypeTableRecord
  2
ACAD_ISO13W100
 70
     0
  3
ISO double-dash double-dot __ __ . . __ __ . . _
 72
    65
 73
     8
 40
36.0
 49
12.0
 74
     0
 49
-3.0
 74
     0
 49
12.0
 74
     0
 49
-3.0
 74
     0
 49
0.0
 74
     0
 49
-3.0
 74
     0
 49
0.0
 74
     0
 49
-3.0
 74
     0
  0
LTYPE
  5
428
330
388
100
AcDbSymbolTableRecord
100
AcDbLinetypeTableRecord
  2
CENTERX2
 70
     0
  3
Center (2x) ________  __  ________  __  _____
 72
    65
 73
     4
 40
101.6
 49
63.5
 74
     0
 49
-12.7
 74
     0
 49
12.7
 74
     0
 49
-12.7
 74
     0
  0
LTYPE
  5
429
330
388
100
AcDbSymbolTableRecord
100
AcDbLinetypeTableRecord
  2
DASHDOT
 70
     0
  3
Dash dot __ . __ . __ . __ . __ . __ . __ . __
 72
    65
 73
     4
 40
25.4
 49
12.7
 74
     0
 49
-6.35
 74
     0
 49
0.0
 74
     0
 49
-6.35
 74
     0
  0
LTYPE
  5
42A
330
388
100
AcDbSymbolTableRecord
100
AcDbLinetypeTableRecord
  2
DASHDOT2
 70
     0
  3
Dash dot (.5x) _._._._._._._._._._._._._._._.
 72
    65
 73
     4
 40
12.7
 49
6.35
 74
     0
 49
-3.175
 74
     0
 49
0.0
 74
     0
 49
-3.175
 74
     0
  0
LTYPE
  5
42B
330
388
100
AcDbSymbolTableRecord
100
AcDbLinetypeTableRecord
  2
DASHDOTX2
 70
     0
  3
Dash dot (2x) ____  .  ____  .  ____  .  ___
 72
    65
 73
     4
 40
50.8
 49
25.4
 74
     0
 49
-12.7
 74
     0
 49
0.0
 74
     0
 49
-12.7
 74
     0
  0
LTYPE
  5
42C
330
388
100
AcDbSymbolTableRecord
100
AcDbLinetypeTableRecord
  2
BORDER2
 70
     0
  3
Border (.5x) __.__.__.__.__.__.__.__.__.__.__.
 72
    65
 73
     6
 40
22.225
 49
6.35
 74
     0
 49
-3.175
 74
     0
 49
6.35
 74
     0
 49
-3.175
 74
     0
 49
0.0
 74
     0
 49
-3.175
 74
     0
  0
LTYPE
  5
42D
330
388
100
AcDbSymbolTableRecord
100
AcDbLinetypeTableRecord
  2
BORDERX2
 70
     0
  3
Border (2x) ____  ____  .  ____  ____  .  ___
 72
    65
 73
     6
 40
88.89999999999999
 49
25.4
 74
     0
 49
-12.7
 74
     0
 49
25.4
 74
     0
 49
-12.7
 74
     0
 49
0.0
 74
     0
 49
-12.7
 74
     0
  0
LTYPE
  5
42E
330
388
100
AcDbSymbolTableRecord
100
AcDbLinetypeTableRecord
  2
CENTER
 70
     0
  3
Center ____ _ ____ _ ____ _ ____ _ ____ _ ____
 72
    65
 73
     4
 40
50.8
 49
31.75
 74
     0
 49
-6.35
 74
     0
 49
6.35
 74
     0
 49
-6.35
 74
     0
  0
LTYPE
  5
42F
330
388
100
AcDbSymbolTableRecord
100
AcDbLinetypeTableRecord
  2
CENTER2
 70
     0
  3
Center (.5x) ___ _ ___ _ ___ _ ___ _ ___ _ ___
 72
    65
 73
     4
 40
28.575
 49
19.05
 74
     0
 49
-3.175
 74
     0
 49
3.175
 74
     0
 49
-3.175
 74
     0
  0
LTYPE
  5
430
330
388
100
AcDbSymbolTableRecord
100
AcDbLinetypeTableRecord
  2
DIVIDE2
 70
     0
  3
Divide (.5x) __..__..__..__..__..__..__..__.._
 72
    65
 73
     6
 40
15.875
 49
6.35
 74
     0
 49
-3.175
 74
     0
 49
0.0
 74
     0
 49
-3.175
 74
     0
 49
0.0
 74
     0
 49
-3.175
 74
     0
  0
LTYPE
  5
431
330
388
100
AcDbSymbolTableRecord
100
AcDbLinetypeTableRecord
  2
DIVIDEX2
 70
     0
  3
Divide (2x) ________  .  .  ________  .  .  _
 72
    65
 73
     6
 40
63.5
 49
25.4
 74
     0
 49
-12.7
 74
     0
 49
0.0
 74
     0
 49
-12.7
 74
     0
 49
0.0
 74
     0
 49
-12.7
 74
     0
  0
LTYPE
  5
432
330
388
100
AcDbSymbolTableRecord
100
AcDbLinetypeTableRecord
  2
DOT
 70
     0
  3
Dot . . . . . . . . . . . . . . . . . . . . . . . .
 72
    65
 73
     2
 40
6.35
 49
0.0
 74
     0
 49
-6.35
 74
     0
  0
LTYPE
  5
433
330
388
100
AcDbSymbolTableRecord
100
AcDbLinetypeTableRecord
  2
DOT2
 70
     0
  3
Dot (.5x) ........................................
 72
    65
 73
     2
 40
3.175
 49
0.0
 74
     0
 49
-3.175
 74
     0
  0
LTYPE
  5
434
330
388
100
AcDbSymbolTableRecord
100
AcDbLinetypeTableRecord
  2
DASHED
 70
     0
  3
Dashed __ __ __ __ __ __ __ __ __ __ __ __ __ _
 72
    65
 73
     2
 40
19.05
 49
12.7
 74
     0
 49
-6.35
 74
     0
  0
LTYPE
  5
435
330
388
100
AcDbSymbolTableRecord
100
AcDbLinetypeTableRecord
  2
DASHED2
 70
     0
  3
Dashed (.5x) _ _ _ _ _ _ _ _ _ _ _ _ _ _ _ _ _ 
 72
    65
 73
     2
 40
9.524999999999999
 49
6.35
 74
     0
 49
-3.175
 74
     0
  0
LTYPE
  5
436
330
388
100
AcDbSymbolTableRecord
100
AcDbLinetypeTableRecord
  2
DASHEDX2
 70
     0
  3
Dashed (2x) ____  ____  ____  ____  ____  ___
 72
    65
 73
     2
 40
38.09999999999999
 49
25.4
 74
     0
 49
-12.7
 74
     0
  0
LTYPE
  5
437
330
388
100
AcDbSymbolTableRecord
100
AcDbLinetypeTableRecord
  2
DIVIDE
 70
     0
  3
Divide ____ . . ____ . . ____ . . ____ . . ____
 72
    65
 73
     6
 40
31.75
 49
12.7
 74
     0
 49
-6.35
 74
     0
 49
0.0
 74
     0
 49
-6.35
 74
     0
 49
0.0
 74
     0
 49
-6.35
 74
     0
  0
LTYPE
  5
439
330
388
100
AcDbSymbolTableRecord
100
AcDbLinetypeTableRecord
  2
FENCELINE2
 70
     0
  3
Fenceline square ----[]-----[]----[]-----[]----[]---
 72
    65
 73
     4
 40
36.83
 49
6.35
 74
     0
 49
-2.54
 74
     2
 75
     0
340
438
 46
2.54
 50
0.0
 44
-2.54
 45
0.0
  9
BOX
 49
-2.54
 74
     0
 49
25.4
 74
     0
  0
LTYPE
  5
43B
330
388
100
AcDbSymbolTableRecord
100
AcDbLinetypeTableRecord
  2
GAS_LINE
 70
     0
  3
Gas line ----GAS----GAS----GAS----GAS----GAS----GAS--
 72
    65
 73
     3
 40
24.13
 49
12.7
 74
     0
 49
-5.08
 74
     2
 75
     0
340
43A
 46
2.54
 50
0.0
 44
-2.54
 45
-1.27
  9
GAS
 49
-6.35
 74
     0
  0
LTYPE
  5
43C
330
388
100
AcDbSymbolTableRecord
100
AcDbLinetypeTableRecord
  2
HIDDEN
 70
     0
  3
Hidden __ __ __ __ __ __ __ __ __ __ __ __ __ __
 72
    65
 73
     2
 40
9.524999999999999
 49
6.35
 74
     0
 49
-3.175
 74
     0
  0
LTYPE
  5
43D
330
388
100
AcDbSymbolTableRecord
100
AcDbLinetypeTableRecord
  2
HIDDEN2
 70
     0
  3
Hidden (.5x) _ _ _ _ _ _ _ _ _ _ _ _ _ _ _ _ _ 
 72
    65
 73
     2
 40
4.762499999999999
 49
3.175
 74
     0
 49
-1.5875
 74
     0
  0
LTYPE
  5
43E
330
388
100
AcDbSymbolTableRecord
100
AcDbLinetypeTableRecord
  2
DOTX2
 70
     0
  3
Dot (2x) .  .  .  .  .  .  .  .  .  .  .  .  .  .
 72
    65
 73
     2
 40
12.7
 49
0.0
 74
     0
 49
-12.7
 74
     0
  0
LTYPE
  5
440
330
388
100
AcDbSymbolTableRecord
100
AcDbLinetypeTableRecord
  2
DRAINAGE
 70
     0
  3
Drainage ---->---->---->----
 72
    65
 73
     2
 40
10.16
 49
5.08
 74
     2
 75
     0
340
43F
 46
2.54
 50
180.0
 44
0.0
 45
0.0
  9
RIGHT_ARROW
 49
5.08
 74
     0
  0
LTYPE
  5
442
330
388
100
AcDbSymbolTableRecord
100
AcDbLinetypeTableRecord
  2
DRAINAGE2
 70
     0
  3
Drainage reversed----<----<----<----
 72
    65
 73
     2
 40
10.16
 49
5.08
 74
     2
 75
     0
340
441
 46
2.54
 50
0.0
 44
0.0
 45
0.0
  9
RIGHT_ARROW
 49
5.08
 74
     0
  0
LTYPE
  5
444
330
388
100
AcDbSymbolTableRecord
100
AcDbLinetypeTableRecord
  2
FENCELINE1
 70
     0
  3
Fenceline circle ----0-----0----0-----0----0-----0--
 72
    65
 73
     4
 40
36.83
 49
6.35
 74
     0
 49
-2.54
 74
     2
 75
     0
340
443
 46
2.54
 50
0.0
 44
-2.54
 45
0.0
  9
CIRC1
 49
-2.54
 74
     0
 49
25.4
 74
     0
  0
LTYPE
  5
445
330
388
100
AcDbSymbolTableRecord
100
AcDbLinetypeTableRecord
  2
PHANTOMX2
 70
     0
  3
Phantom (2x) ____________    ____    ____   _
 72
    65
 73
     6
 40
127.0
 49
63.5
 74
     0
 49
-12.7
 74
     0
 49
12.7
 74
     0
 49
-12.7
 74
     0
 49
12.7
 74
     0
 49
-12.7
 74
     0
  0
LTYPE
  5
447
330
388
100
AcDbSymbolTableRecord
100
AcDbLinetypeTableRecord
  2
TRACKS
 70
     0
  3
Tracks -|-|-|-|-|-|-|-|-|-|-|-|-|-|-|-|-|-|-|-|-|-|-|-|-
 72
    65
 73
     2
 40
7.62
 49
3.81
 74
     2
 75
     0
340
446
 46
6.35
 50
0.0
 44
0.0
 45
0.0
  9
TRACK1
 49
3.81
 74
     0
  0
LTYPE
  5
44A
330
388
100
AcDbSymbolTableRecord
100
AcDbLinetypeTableRecord
  2
ZIGZAG
 70
     0
  3
Zig zag /\/\/\/\/\/\/\/\/\/\/\/\/\/\/\/\/\/\/\/\/\/\/\/
 72
    65
 73
     4
 40
20.32254
 49
0.00254
 74
     0
 49
-5.08
 74
     2
 75
     0
340
448
 46
5.08
 50
0.0
 44
-5.08
 45
0.0
  9
ZIG
 49
-10.16
 74
     2
 75
     0
340
449
 46
5.08
 50
180.0
 44
5.08
 45
0.0
  9
ZIG
 49
-5.08
 74
     0
  0
LTYPE
  5
44B
330
388
100
AcDbSymbolTableRecord
100
AcDbLinetypeTableRecord
  2
HIDDENX2
 70
     0
  3
Hidden (2x) ____ ____ ____ ____ ____ ____ ____ 
 72
    65
 73
     2
 40
19.05
 49
12.7
 74
     0
 49
-6.35
 74
     0
  0
LTYPE
  5
44D
330
388
100
AcDbSymbolTableRecord
100
AcDbLinetypeTableRecord
  2
HOT_WATER_SUPPLY
 70
     0
  3
Hot water supply ---- HW ---- HW ---- HW ----
 72
    65
 73
     3
 40
22.86
 49
12.7
 74
     0
 49
-5.08
 74
     2
 75
     0
340
44C
 46
2.54
 50
0.0
 44
-2.54
 45
-1.27
  9
HW
 49
-5.08
 74
     0
  0
LTYPE
  5
44E
330
388
100
AcDbSymbolTableRecord
100
AcDbLinetypeTableRecord
  2
PHANTOM
 70
     0
  3
Phantom ______  __  __  ______  __  __  ______ 
 72
    65
 73
     6
 40
63.50000000000001
 49
31.75
 74
     0
 49
-6.35
 74
     0
 49
6.35
 74
     0
 49
-6.35
 74
     0
 49
6.35
 74
     0
 49
-6.35
 74
     0
  0
LTYPE
  5
44F
330
388
100
AcDbSymbolTableRecord
100
AcDbLinetypeTableRecord
  2
PHANTOM2
 70
     0
  3
Phantom (.5x) ___ _ _ ___ _ _ ___ _ _ ___ _ _
 72
    65
 73
     6
 40
31.75
 49
15.875
 74
     0
 49
-3.175
 74
     0
 49
3.175
 74
     0
 49
-3.175
 74
     0
 49
3.175
 74
     0
 49
-3.175
 74
     0
  0
LTYPE
  5
450
330
388
100
AcDbSymbolTableRecord
100
AcDbLinetypeTableRecord
  2
ACAD_ISO06W100
 70
     0
  3
ISO long-dash triple-dot ____ ... ____ ... ____
 72
    65
 73
     8
 40
36.0
 49
24.0
 74
     0
 49
-3.0
 74
     0
 49
0.0
 74
     0
 49
-3.0
 74
     0
 49
0.0
 74
     0
 49
-3.0
 74
     0
 49
0.0
 74
     0
 49
-3.0
 74
     0
  0
LTYPE
  5
451
330
388
100
AcDbSymbolTableRecord
100
AcDbLinetypeTableRecord
  2
ACAD_ISO07W100
 70
     0
  3
ISO dot . . . . . . . . . . . . . . . . . . . . 
 72
    65
 73
     2
 40
3.0
 49
0.0
 74
     0
 49
-3.0
 74
     0
  0
LTYPE
  5
452
330
388
100
AcDbSymbolTableRecord
100
AcDbLinetypeTableRecord
  2
ACAD_ISO08W100
 70
     0
  3
ISO long-dash short-dash ____ __ ____ __ ____ _
 72
    65
 73
     4
 40
36.0
 49
24.0
 74
     0
 49
-3.0
 74
     0
 49
6.0
 74
     0
 49
-3.0
 74
     0
  0
LTYPE
  5
453
330
388
100
AcDbSymbolTableRecord
100
AcDbLinetypeTableRecord
  2
ACAD_ISO09W100
 70
     0
  3
ISO long-dash double-short-dash ____ __ __ ____
 72
    65
 73
     6
 40
45.0
 49
24.0
 74
     0
 49
-3.0
 74
     0
 49
6.0
 74
     0
 49
-3.0
 74
     0
 49
6.0
 74
     0
 49
-3.0
 74
     0
  0
LTYPE
  5
454
330
388
100
AcDbSymbolTableRecord
100
AcDbLinetypeTableRecord
  2
ACAD_ISO02W100
 70
     0
  3
ISO dash __ __ __ __ __ __ __ __ __ __ __ __ __
 72
    65
 73
     2
 40
15.0
 49
12.0
 74
     0
 49
-3.0
 74
     0
  0
LTYPE
  5
455
330
388
100
AcDbSymbolTableRecord
100
AcDbLinetypeTableRecord
  2
ACAD_ISO03W100
 70
     0
  3
ISO dash space __    __    __    __    __    __
 72
    65
 73
     2
 40
30.0
 49
12.0
 74
     0
 49
-18.0
 74
     0
  0
LTYPE
  5
456
330
388
100
AcDbSymbolTableRecord
100
AcDbLinetypeTableRecord
  2
ACAD_ISO04W100
 70
     0
  3
ISO long-dash dot ____ . ____ . ____ . ____ . _
 72
    65
 73
     4
 40
30.0
 49
24.0
 74
     0
 49
-3.0
 74
     0
 49
0.0
 74
     0
 49
-3.0
 74
     0
  0
LTYPE
  5
457
330
388
100
AcDbSymbolTableRecord
100
AcDbLinetypeTableRecord
  2
ACAD_ISO05W100
 70
     0
  3
ISO long-dash double-dot ____ .. ____ .. ____ . 
 72
    65
 73
     6
 40
33.0
 49
24.0
 74
     0
 49
-3.0
 74
     0
 49
0.0
 74
     0
 49
-3.0
 74
     0
 49
0.0
 74
     0
 49
-3.0
 74
     0
  0
LTYPE
  5
458
330
388
100
AcDbSymbolTableRecord
100
AcDbLinetypeTableRecord
  2
ACAD_ISO14W100
 70
     0
  3
ISO dash triple-dot __ . . . __ . . . __ . . . _
 72
    65
 73
     8
 40
24.0
 49
12.0
 74
     0
 49
-3.0
 74
     0
 49
0.0
 74
     0
 49
-3.0
 74
     0
 49
0.0
 74
     0
 49
-3.0
 74
     0
 49
0.0
 74
     0
 49
-3.0
 74
     0
  0
LTYPE
  5
459
330
388
100
AcDbSymbolTableRecord
100
AcDbLinetypeTableRecord
  2
ACAD_ISO15W100
 70
     0
  3
ISO double-dash triple-dot __ __ . . . __ __ . .
 72
    65
 73
    10
 40
39.0
 49
12.0
 74
     0
 49
-3.0
 74
     0
 49
12.0
 74
     0
 49
-3.0
 74
     0
 49
0.0
 74
     0
 49
-3.0
 74
     0
 49
0.0
 74
     0
 49
-3.0
 74
     0
 49
0.0
 74
     0
 49
-3.0
 74
     0
  0
LTYPE
  5
45C
330
388
100
AcDbSymbolTableRecord
100
AcDbLinetypeTableRecord
  2
BATTING
 70
     0
  3
Batting SSSSSSSSSSSSSSSSSSSSSSSSSSSSSSSSSSSSSSSSSSSSSSS
 72
    65
 73
     4
 40
10.16254
 49
0.00254
 74
     0
 49
-2.54
 74
     2
 75
     0
340
45A
 46
2.54
 50
0.0
 44
-2.54
 45
0.0
  9
BAT
 49
-5.08
 74
     2
 75
     0
340
45B
 46
2.54
 50
180.0
 44
2.54
 45
0.0
  9
BAT
 49
-2.54
 74
     0
  0
LTYPE
  5
45D
330
388
100
AcDbSymbolTableRecord
100
AcDbLinetypeTableRecord
  2
BORDER
 70
     0
  3
Border __ __ . __ __ . __ __ . __ __ . __ __ .
 72
    65
 73
     6
 40
44.45
 49
12.7
 74
     0
 49
-6.35
 74
     0
 49
12.7
 74
     0
 49
-6.35
 74
     0
 49
0.0
 74
     0
 49
-6.35
 74
     0
  0
LTYPE
  5
45E
330
388
100
AcDbSymbolTableRecord
100
AcDbLinetypeTableRecord
  2
ACAD_ISO10W100
 70
     0
  3
ISO dash dot __ . __ . __ . __ . __ . __ . __ . 
 72
    65
 73
     4
 40
18.0
 49
12.0
 74
     0
 49
-3.0
 74
     0
 49
0.0
 74
     0
 49
-3.0
 74
     0
  0
LTYPE
  5
45F
330
388
100
AcDbSymbolTableRecord
100
AcDbLinetypeTableRecord
  2
ACAD_ISO11W100
 70
     0
  3
ISO double-dash dot __ __ . __ __ . __ __ . __ _
 72
    65
 73
     6
 40
33.0
 49
12.0
 74
     0
 49
-3.0
 74
     0
 49
12.0
 74
     0
 49
-3.0
 74
     0
 49
0.0
 74
     0
 49
-3.0
 74
     0
  0
ENDTAB
  0
TABLE
  2
LAYER
  5
386
330
0
100
AcDbSymbolTable
 70
     1
  0
LAYER
  5
393
330
386
100
AcDbSymbolTableRecord
100
AcDbLayerTableRecord
  2
0
 70
     0
 62
     7
  6
Continuous
370
    25
390
392
347
3C8
  0
ENDTAB
  0
TABLE
  2
STYLE
  5
387
330
0
100
AcDbSymbolTable
 70
    12
  0
STYLE
  5
394
330
387
100
AcDbSymbolTableRecord
100
AcDbTextStyleTableRecord
  2
Standard
 70
     0
 40
0.0
 41
1.0
 50
0.0
 71
     0
 42
0.2
  3
txt
  4

  0
STYLE
  5
438
330
387
100
AcDbSymbolTableRecord
100
AcDbTextStyleTableRecord
  2
textstyle0
 70
     0
 40
0.0
 41
1.0
 50
0.0
 71
     0
 42
0.2
  3
ltypeshp.shx
  4

  0
STYLE
  5
43A
330
387
100
AcDbSymbolTableRecord
100
AcDbTextStyleTableRecord
  2
textstyle1
 70
     0
 40
0.0
 41
1.0
 50
0.0
 71
     0
 42
0.2
  3
STANDARD
  4

  0
STYLE
  5
43F
330
387
100
AcDbSymbolTableRecord
100
AcDbTextStyleTableRecord
  2
textstyle2
 70
     0
 40
0.0
 41
1.0
 50
0.0
 71
     0
 42
0.2
  3
qcadshp.shx
  4

  0
STYLE
  5
441
330
387
100
AcDbSymbolTableRecord
100
AcDbTextStyleTableRecord
  2
textstyle3
 70
     0
 40
0.0
 41
1.0
 50
0.0
 71
     0
 42
0.2
  3
qcadshp.shx
  4

  0
STYLE
  5
443
330
387
100
AcDbSymbolTableRecord
100
AcDbTextStyleTableRecord
  2
textstyle4
 70
     0
 40
0.0
 41
1.0
 50
0.0
 71
     0
 42
0.2
  3
ltypeshp.shx
  4

  0
STYLE
  5
446
330
387
100
AcDbSymbolTableRecord
100
AcDbTextStyleTableRecord
  2
textstyle5
 70
     0
 40
0.0
 41
1.0
 50
0.0
 71
     0
 42
0.2
  3
ltypeshp.shx
  4

  0
STYLE
  5
448
330
387
100
AcDbSymbolTableRecord
100
AcDbTextStyleTableRecord
  2
textstyle6
 70
     0
 40
0.0
 41
1.0
 50
0.0
 71
     0
 42
0.2
  3
ltypeshp.shx
  4

  0
STYLE
  5
449
330
387
100
AcDbSymbolTableRecord
100
AcDbTextStyleTableRecord
  2
textstyle7
 70
     0
 40
0.0
 41
1.0
 50
0.0
 71
     0
 42
0.2
  3
ltypeshp.shx
  4

  0
STYLE
  5
44C
330
387
100
AcDbSymbolTableRecord
100
AcDbTextStyleTableRecord
  2
textstyle8
 70
     0
 40
0.0
 41
1.0
 50
0.0
 71
     0
 42
0.2
  3
STANDARD
  4

  0
STYLE
  5
45A
330
387
100
AcDbSymbolTableRecord
100
AcDbTextStyleTableRecord
  2
textstyle9
 70
     0
 40
0.0
 41
1.0
 50
0.0
 71
     0
 42
0.2
  3
ltypeshp.shx
  4

  0
STYLE
  5
45B
330
387
100
AcDbSymbolTableRecord
100
AcDbTextStyleTableRecord
  2
textstyle10
 70
     0
 40
0.0
 41
1.0
 50
0.0
 71
     0
 42
0.2
  3
ltypeshp.shx
  4

  0
ENDTAB
  0
TABLE
  2
VIEW
  5
389
330
0
100
AcDbSymbolTable
 70
     0
  0
ENDTAB
  0
TABLE
  2
UCS
  5
38A
330
0
100
AcDbSymbolTable
 70
     0
  0
ENDTAB
  0
TABLE
  2
APPID
  5
38C
330
0
100
AcDbSymbolTable
 70
     2
  0
APPID
  5
395
330
38C
100
AcDbSymbolTableRecord
100
AcDbRegAppTableRecord
  2
ACAD
 70
     0
  0
APPID
  5
3F0
330
38C
100
AcDbSymbolTableRecord
100
AcDbRegAppTableRecord
  2
QCAD
 70
     0
  0
ENDTAB
  0
TABLE
  2
DIMSTYLE
  5
38D
330
0
100
AcDbSymbolTable
 70
     2
100
AcDbDimStyleTable
  0
DIMSTYLE
105
3A9
330
38D
100
AcDbSymbolTableRecord
100
AcDbDimStyleTableRecord
  2
Standard
 70
     0
178
     0
340
394
  0
DIMSTYLE
105
425
330
38D
100
AcDbSymbolTableRecord
100
AcDbDimStyleTableRecord
  2
QCADDimStyle
 70
     0
 41
2.5
 42
0.625
 44
1.25
 73
     0
 77
     1
140
2.5
147
0.625
178
     0
340
394
  0
ENDTAB
  0
TABLE
  2
BLOCK_RECORD
  5
385
330
0
100
AcDbSymbolTable
 70
     0
  0
BLOCK_RECORD
  5
3A1
330
385
100
AcDbSymbolTableRecord
100
AcDbBlockTableRecord
  2
*Model_Space
340
3A4
 70
     0
280
     1
281
     0
  0
BLOCK_RECORD
  5
39D
330
385
100
AcDbSymbolTableRecord
100
AcDbBlockTableRecord
  2
*Paper_Space
340
3A0
 70
     0
280
     1
281
     0
  0
ENDTAB
  0
ENDSEC
  0
SECTION
  2
BLOCKS
  0
BLOCK
  5
3A2
330
3A1
100
AcDbEntity
  8
0
100
AcDbBlockBegin
  2
*Model_Space
 70
     0
 10
0.0
 20
0.0
 30
0.0
  3
*Model_Space
  1

  0
ENDBLK
  5
3A3
330
3A1
100
AcDbEntity
  8
0
100
AcDbBlockEnd
  0
BLOCK
  5
39E
330
39D
100
AcDbEntity
 67
     1
  8
0
100
AcDbBlockBegin
  2
*Paper_Space
 70
     0
 10
0.0
 20
0.0
 30
0.0
  3
*Paper_Space
  1

  0
ENDBLK
  5
39F
330
39D
100
AcDbEntity
 67
     1
  8
0
100
AcDbBlockEnd
  0
ENDSEC
  0
SECTION
  2
ENTITIES
  0
LINE
  5
38
330
3A1
100
AcDbEntity
  8
0
100
AcDbLine
 10
157.351
 20
-334.446
 30
0.0
 11
164.632
 21
-333.367
 31
0.0
  0
LINE
  5
39
330
3A1
100
AcDbEntity
  8
0
100
AcDbLine
 10
164.632
 20
-333.367
 30
0.0
 11
171.771
 21
-331.578
 31
0.0
  0
LINE
  5
3A
330
3A1
100
AcDbEntity
  8
0
100
AcDbLine
 10
171.771
 20
-331.578
 30
0.0
 11
178.701
 21
-329.099
 31
0.0
  0
LINE
  5
3B
330
3A1
100
AcDbEntity
  8
0
100
AcDbLine
 10
178.701
 20
-329.099
 30
0.0
 11
185.355
 21
-325.952
 31
0.0
  0
LINE
  5
3C
330
3A1
100
AcDbEntity
  8
0
100
AcDbLine
 10
185.355
 20
-325.952
 30
0.0
 11
191.668
 21
-322.168
 31
0.0
  0
LINE
  5
3D
330
3A1
100
AcDbEntity
  8
0
100
AcDbLine
 10
191.668
 20
-322.168
 30
0.0
 11
197.579
 21
-317.783
 31
0.0
  0
LINE
  5
3E
330
3A1
100
AcDbEntity
  8
0
100
AcDbLine
 10
197.579
 20
-317.783
 30
0.0
 11
203.033
 21
-312.841
 31
0.0
  0
LINE
  5
3F
330
3A1
100
AcDbEntity
  8
0
100
AcDbLine
 10
203.033
 20
-312.841
 30
0.0
 11
207.976
 21
-307.387
 31
0.0
  0
LINE
  5
40
330
3A1
100
AcDbEntity
  8
0
100
AcDbLine
 10
207.976
 20
-307.387
 30
0.0
 11
212.36
 21
-301.475
 31
0.0
  0
LINE
  5
41
330
3A1
100
AcDbEntity
  8
0
100
AcDbLine
 10
212.36
 20
-301.475
 30
0.0
 11
216.144
 21
-295.162
 31
0.0
  0
LINE
  5
42
330
3A1
100
AcDbEntity
  8
0
100
AcDbLine
 10
216.144
 20
-295.162
 30
0.0
 11
366.144
 21
-35.3548
 31
0.0
  0
LINE
  5
43
330
3A1
100
AcDbEntity
  8
0
100
AcDbLine
 10
366.144
 20
-35.3548
 30
0.0
 11
369.291
 21
-28.7012
 31
0.0
  0
LINE
  5
44
330
3A1
100
AcDbEntity
  8
0
100
AcDbLine
 10
369.291
 20
-28.7012
 30
0.0
 11
371.771
 21
-21.7713
 31
0.0
  0
LINE
  5
45
330
3A1
100
AcDbEntity
  8
0
100
AcDbLine
 10
371.771
 20
-21.7713
 30
0.0
 11
373.559
 21
-14.6318
 31
0.0
  0
LINE
  5
46
330
3A1
100
AcDbEntity
  8
0
100
AcDbLine
 10
373.559
 20
-14.6318
 30
0.0
 11
374.639
 21
-7.35127
 31
0.0
  0
LINE
  5
47
330
3A1
100
AcDbEntity
  8
0
100
AcDbLine
 10
374.639
 20
-7.35127
 30
0.0
 11
375.0
 21
0.0
 31
0.0
  0
LINE
  5
48
330
3A1
100
AcDbEntity
  8
0
100
AcDbLine
 10
375.0
 20
0.0
 30
0.0
 11
374.639
 21
7.35127
 31
0.0
  0
LINE
  5
49
330
3A1
100
AcDbEntity
  8
0
100
AcDbLine
 10
374.639
 20
7.35127
 30
0.0
 11
373.559
 21
14.6318
 31
0.0
  0
LINE
  5
4A
330
3A1
100
AcDbEntity
  8
0
100
AcDbLine
 10
373.559
 20
14.6318
 30
0.0
 11
371.771
 21
21.7713
 31
0.0
  0
LINE
  5
4B
330
3A1
100
AcDbEntity
  8
0
100
AcDbLine
 10
371.771
 20
21.7713
 30
0.0
 11
369.291
 21
28.7012
 31
0.0
  0
LINE
  5
4C
330
3A1
100
AcDbEntity
  8
0
100
AcDbLine
 10
369.291
 20
28.7012
 30
0.0
 11
366.144
 21
35.3548
 31
0.0
  0
LINE
  5
4D
330
3A1
100
AcDbEntity
  8
0
100
AcDbLine
 10
366.144
 20
35.3548
 30
0.0
 11
216.144
 21
295.162
 31
0.0
  0
LINE
  5
4E
330
3A1
100
AcDbEntity
  8
0
100
AcDbLine
 10
216.144
 20
295.162
 30
0.0
 11
212.36
 21
301.475
 31
0.0
  0
LINE
  5
4F
330
3A1
100
AcDbEntity
  8
0
100
AcDbLine
 10
212.36
 20
301.475
 30
0.0
 11
207.976
 21
307.387
 31
0.0
  0
LINE
  5
50
330
3A1
100
AcDbEntity
  8
0
100
AcDbLine
 10
207.976
 20
307.387
 30
0.0
 11
203.033
 21
312.841
 31
0.0
  0
LINE
  5
51
330
3A1
100
AcDbEntity
  8
0
100
AcDbLine
 10
203.033
 20
312.841
 30
0.0
 11
197.579
 21
317.783
 31
0.0
  0
LINE
  5
52
330
3A1
100
AcDbEntity
  8
0
100
AcDbLine
 10
197.579
 20
317.783
 30
0.0
 11
191.668
 21
322.168
 31
0.0
  0
LINE
  5
53
330
3A1
100
AcDbEntity
  8
0
100
AcDbLine
 10
191.668
 20
322.168
 30
0.0
 11
185.355
 21
325.952
 31
0.0
  0
LINE
  5
54
330
3A1
100
AcDbEntity
  8
0
100
AcDbLine
 10
185.355
 20
325.952
 30
0.0
 11
178.701
 21
329.099
 31
0.0
  0
LINE
  5
55
330
3A1
100
AcDbEntity
  8
0
100
AcDbLine
 10
178.701
 20
329.099
 30
0.0
 11
171.771
 21
331.578
 31
0.0
  0
LINE
  5
56
330
3A1
100
AcDbEntity
  8
0
100
AcDbLine
 10
171.771
 20
331.578
 30
0.0
 11
164.632
 21
333.367
 31
0.0
  0
LINE
  5
57
330
3A1
100
AcDbEntity
  8
0
100
AcDbLine
 10
164.632
 20
333.367
 30
0.0
 11
157.351
 21
334.446
 31
0.0
  0
LINE
  5
58
330
3A1
100
AcDbEntity
  8
0
100
AcDbLine
 10
157.351
 20
334.446
 30
0.0
 11
150.0
 21
334.808
 31
0.0
  0
LINE
  5
59
330
3A1
100
AcDbEntity
  8
0
100
AcDbLine
 10
150.0
 20
334.808
 30
0.0
 11
-150.0
 21
334.808
 31
0.0
  0
LINE
  5
5A
330
3A1
100
AcDbEntity
  8
0
100
AcDbLine
 10
-150.0
 20
334.808
 30
0.0
 11
-157.351
 21
334.446
 31
0.0
  0
LINE
  5
5B
330
3A1
100
AcDbEntity
  8
0
100
AcDbLine
 10
-157.351
 20
334.446
 30
0.0
 11
-164.632
 21
333.367
 31
0.0
  0
LINE
  5
5C
330
3A1
100
AcDbEntity
  8
0
100
AcDbLine
 10
-164.632
 20
333.367
 30
0.0
 11
-171.771
 21
331.578
 31
0.0
  0
LINE
  5
5D
330
3A1
100
AcDbEntity
  8
0
100
AcDbLine
 10
-171.771
 20
331.578
 30
0.0
 11
-178.701
 21
329.099
 31
0.0
  0
LINE
  5
5E
330
3A1
100
AcDbEntity
  8
0
100
AcDbLine
 10
-178.701
 20
329.099
 30
0.0
 11
-185.355
 21
325.952
 31
0.0
  0
LINE
  5
5F
330
3A1
100
AcDbEntity
  8
0
100
AcDbLine
 10
-185.355
 20
325.952
 30
0.0
 11
-191.668
 21
322.168
 31
0.0
  0
LINE
  5
60
330
3A1
100
AcDbEntity
  8
0
100
AcDbLine
 10
-191.668
 20
322.168
 30
0.0
 11
-197.579
 21
317.783
 31
0.0
  0
LINE
  5
61
330
3A1
100
AcDbEntity
  8
0
100
AcDbLine
 10
-197.579
 20
317.783
 30
0.0
 11
-203.033
 21
312.841
 31
0.0
  0
LINE
  5
62
330
3A1
100
AcDbEntity
  8
0
100
AcDbLine
 10
-203.033
 20
312.841
 30
0.0
 11
-207.976
 21
307.387
 31
0.0
  0
LINE
  5
63
330
3A1
100
AcDbEntity
  8
0
100
AcDbLine
 10
-207.976
 20
307.387
 30
0.0
 11
-212.36
 21
301.475
 31
0.0
  0
LINE
  5
64
330
3A1
100
AcDbEntity
  8
0
100
AcDbLine
 10
-212.36
 20
301.475
 30
0.0
 11
-216.144
 21
295.162
 31
0.0
  0
LINE
  5
65
330
3A1
100
AcDbEntity
  8
0
100
AcDbLine
 10
-216.144
 20
295.162
 30
0.0
 11
-366.144
 21
35.3548
 31
0.0
  0
LINE
  5
66
330
3A1
100
AcDbEntity
  8
0
100
AcDbLine
 10
-366.144
 20
35.3548
 30
0.0
 11
-369.291
 21
28.7012
 31
0.0
  0
LINE
  5
67
330
3A1
100
AcDbEntity
  8
0
100
AcDbLine
 10
-369.291
 20
28.7012
 30
0.0
 11
-371.771
 21
21.7713
 31
0.0
  0
LINE
  5
68
330
3A1
100
AcDbEntity
  8
0
100
AcDbLine
 10
-371.771
 20
21.7713
 30
0.0
 11
-373.559
 21
14.6318
 31
0.0
  0
LINE
  5
69
330
3A1
100
AcDbEntity
  8
0
100
AcDbLine
 10
-373.559
 20
14.6318
 30
0.0
 11
-374.639
 21
7.35127
 31
0.0
  0
LINE
  5
6A
330
3A1
100
AcDbEntity
  8
0
100
AcDbLine
 10
-374.639
 20
7.35127
 30
0.0
 11
-375.0
 21
0.0
 31
0.0
  0
LINE
  5
6B
330
3A1
100
AcDbEntity
  8
0
100
AcDbLine
 10
-375.0
 20
0.0
 30
0.0
 11
-374.639
 21
-7.35127
 31
0.0
  0
LINE
  5
6C
330
3A1
100
AcDbEntity
  8
0
100
AcDbLine
 10
-374.639
 20
-7.35127
 30
0.0
 11
-373.559
 21
-14.6318
 31
0.0
  0
LINE
  5
6D
330
3A1
100
AcDbEntity
  8
0
100
AcDbLine
 10
-373.559
 20
-14.6318
 30
0.0
 11
-371.771
 21
-21.7713
 31
0.0
  0
LINE
  5
6E
330
3A1
100
AcDbEntity
  8
0
100
AcDbLine
 10
-371.771
 20
-21.7713
 30
0.0
 11
-369.291
 21
-28.7012
 31
0.0
  0
LINE
  5
6F
330
3A1
100
AcDbEntity
  8
0
100
AcDbLine
 10
-369.291
 20
-28.7012
 30
0.0
 11
-366.144
 21
-35.3548
 31
0.0
  0
LINE
  5
70
330
3A1
100
AcDbEntity
  8
0
100
AcDbLine
 10
-366.144
 20
-35.3548
 30
0.0
 11
-216.144
 21
-295.162
 31
0.0
  0
LINE
  5
71
330
3A1
100
AcDbEntity
  8
0
100
AcDbLine
 10
-216.144
 20
-295.162
 30
0.0
 11
-212.36
 21
-301.475
 31
0.0
  0
LINE
  5
72
330
3A1
100
AcDbEntity
  8
0
100
AcDbLine
 10
-212.36
 20
-301.475
 30
0.0
 11
-207.976
 21
-307.387
 31
0.0
  0
LINE
  5
73
330
3A1
100
AcDbEntity
  8
0
100
AcDbLine
 10
-207.976
 20
-307.387
 30
0.0
 11
-203.033
 21
-312.841
 31
0.0
  0
LINE
  5
74
330
3A1
100
AcDbEntity
  8
0
100
AcDbLine
 10
-203.033
 20
-312.841
 30
0.0
 11
-197.579
 21
-317.783
 31
0.0
  0
LINE
  5
75
330
3A1
100
AcDbEntity
  8
0
100
AcDbLine
 10
-197.579
 20
-317.783
 30
0.0
 11
-191.668
 21
-322.168
 31
0.0
  0
LINE
  5
76
330
3A1
100
AcDbEntity
  8
0
100
AcDbLine
 10
-191.668
 20
-322.168
 30
0.0
 11
-185.355
 21
-325.952
 31
0.0
  0
LINE
  5
77
330
3A1
100
AcDbEntity
  8
0
100
AcDbLine
 10
-185.355
 20
-325.952
 30
0.0
 11
-178.701
 21
-329.099
 31
0.0
  0
LINE
  5
78
330
3A1
100
AcDbEntity
  8
0
100
AcDbLine
 10
-178.701
 20
-329.099
 30
0.0
 11
-171.771
 21
-331.578
 31
0.0
  0
LINE
  5
79
330
3A1
100
AcDbEntity
  8
0
100
AcDbLine
 10
-171.771
 20
-331.578
 30
0.0
 11
-164.632
 21
-333.367
 31
0.0
  0
LINE
  5
7A
330
3A1
100
AcDbEntity
  8
0
100
AcDbLine
 10
-164.632
 20
-333.367
 30
0.0
 11
-157.351
 21
-334.446
 31
0.0
  0
LINE
  5
7B
330
3A1
100
AcDbEntity
  8
0
100
AcDbLine
 10
-157.351
 20
-334.446
 30
0.0
 11
-150.0
 21
-334.808
 31
0.0
  0
LINE
  5
7C
330
3A1
100
AcDbEntity
  8
0
100
AcDbLine
 10
-150.0
 20
-334.808
 30
0.0
 11
150.0
 21
-334.808
 31
0.0
  0
LINE
  5
7D
330
3A1
100
AcDbEntity
  8
0
100
AcDbLine
 10
150.0
 20
-334.808
 30
0.0
 11
157.351
 21
-334.446
 31
0.0
  0
LINE
  5
7E
330
3A1
100
AcDbEntity
  8
0
100
AcDbLine
 10
-153.431
 20
224.976
 30
0.0
 11
-156.828
 21
225.48
 31
0.0
  0
LINE
  5
7F
330
3A1
100
AcDbEntity
  8
0
100
AcDbLine
 10
-156.828
 20
225.48
 30
0.0
 11
-160.16
 21
226.315
 31
0.0
  0
LINE
  5
80
330
3A1
100
AcDbEntity
  8
0
100
AcDbLine
 10
-160.16
 20
226.315
 30
0.0
 11
-163.394
 21
227.472
 31
0.0
  0
LINE
  5
81
330
3A1
100
AcDbEntity
  8
0
100
AcDbLine
 10
-163.394
 20
227.472
 30
0.0
 11
-166.499
 21
228.94
 31
0.0
  0
LINE
  5
82
330
3A1
100
AcDbEntity
  8
0
100
AcDbLine
 10
-166.499
 20
228.94
 30
0.0
 11
-169.445
 21
230.706
 31
0.0
  0
LINE
  5
83
330
3A1
100
AcDbEntity
  8
0
100
AcDbLine
 10
-169.445
 20
230.706
 30
0.0
 11
-172.204
 21
232.752
 31
0.0
  0
LINE
  5
84
330
3A1
100
AcDbEntity
  8
0
100
AcDbLine
 10
-172.204
 20
232.752
 30
0.0
 11
-174.749
 21
235.059
 31
0.0
  0
LINE
  5
85
330
3A1
100
AcDbEntity
  8
0
100
AcDbLine
 10
-174.749
 20
235.059
 30
0.0
 11
-177.055
 21
237.604
 31
0.0
  0
LINE
  5
86
330
3A1
100
AcDbEntity
  8
0
100
AcDbLine
 10
-177.055
 20
237.604
 30
0.0
 11
-179.101
 21
240.363
 31
0.0
  0
LINE
  5
87
330
3A1
100
AcDbEntity
  8
0
100
AcDbLine
 10
-179.101
 20
240.363
 30
0.0
 11
-180.867
 21
243.309
 31
0.0
  0
LINE
  5
88
330
3A1
100
AcDbEntity
  8
0
100
AcDbLine
 10
-180.867
 20
243.309
 30
0.0
 11
-182.336
 21
246.414
 31
0.0
  0
LINE
  5
89
330
3A1
100
AcDbEntity
  8
0
100
AcDbLine
 10
-182.336
 20
246.414
 30
0.0
 11
-183.493
 21
249.648
 31
0.0
  0
LINE
  5
8A
330
3A1
100
AcDbEntity
  8
0
100
AcDbLine
 10
-183.493
 20
249.648
 30
0.0
 11
-184.327
 21
252.979
 31
0.0
  0
LINE
  5
8B
330
3A1
100
AcDbEntity
  8
0
100
AcDbLine
 10
-184.327
 20
252.979
 30
0.0
 11
-184.831
 21
256.377
 31
0.0
  0
LINE
  5
8C
330
3A1
100
AcDbEntity
  8
0
100
AcDbLine
 10
-184.831
 20
256.377
 30
0.0
 11
-185.0
 21
259.808
 31
0.0
  0
LINE
  5
8D
330
3A1
100
AcDbEntity
  8
0
100
AcDbLine
 10
-185.0
 20
259.808
 30
0.0
 11
-184.831
 21
263.238
 31
0.0
  0
LINE
  5
8E
330
3A1
100
AcDbEntity
  8
0
100
AcDbLine
 10
-184.831
 20
263.238
 30
0.0
 11
-184.327
 21
266.636
 31
0.0
  0
LINE
  5
8F
330
3A1
100
AcDbEntity
  8
0
100
AcDbLine
 10
-184.327
 20
266.636
 30
0.0
 11
-183.493
 21
269.968
 31
0.0
  0
LINE
  5
90
330
3A1
100
AcDbEntity
  8
0
100
AcDbLine
 10
-183.493
 20
269.968
 30
0.0
 11
-182.336
 21
273.202
 31
0.0
  0
LINE
  5
91
330
3A1
100
AcDbEntity
  8
0
100
AcDbLine
 10
-182.336
 20
273.202
 30
0.0
 11
-180.867
 21
276.307
 31
0.0
  0
LINE
  5
92
330
3A1
100
AcDbEntity
  8
0
100
AcDbLine
 10
-180.867
 20
276.307
 30
0.0
 11
-179.101
 21
279.253
 31
0.0
  0
LINE
  5
93
330
3A1
100
AcDbEntity
  8
0
100
AcDbLine
 10
-179.101
 20
279.253
 30
0.0
 11
-177.055
 21
282.011
 31
0.0
  0
LINE
  5
94
330
3A1
100
AcDbEntity
  8
0
100
AcDbLine
 10
-177.055
 20
282.011
 30
0.0
 11
-174.749
 21
284.556
 31
0.0
  0
LINE
  5
95
330
3A1
100
AcDbEntity
  8
0
100
AcDbLine
 10
-174.749
 20
284.556
 30
0.0
 11
-172.204
 21
286.863
 31
0.0
  0
LINE
  5
96
330
3A1
100
AcDbEntity
  8
0
100
AcDbLine
 10
-172.204
 20
286.863
 30
0.0
 11
-169.445
 21
288.909
 31
0.0
  0
LINE
  5
97
330
3A1
100
AcDbEntity
  8
0
100
AcDbLine
 10
-169.445
 20
288.909
 30
0.0
 11
-166.499
 21
290.675
 31
0.0
  0
LINE
  5
98
330
3A1
100
AcDbEntity
  8
0
100
AcDbLine
 10
-166.499
 20
290.675
 30
0.0
 11
-163.394
 21
292.143
 31
0.0
  0
LINE
  5
99
330
3A1
100
AcDbEntity
  8
0
100
AcDbLine
 10
-163.394
 20
292.143
 30
0.0
 11
-160.16
 21
293.301
 31
0.0
  0
LINE
  5
9A
330
3A1
100
AcDbEntity
  8
0
100
AcDbLine
 10
-160.16
 20
293.301
 30
0.0
 11
-156.828
 21
294.135
 31
0.0
  0
LINE
  5
9B
330
3A1
100
AcDbEntity
  8
0
100
AcDbLine
 10
-156.828
 20
294.135
 30
0.0
 11
-153.431
 21
294.639
 31
0.0
  0
LINE
  5
9C
330
3A1
100
AcDbEntity
  8
0
100
AcDbLine
 10
-153.431
 20
294.639
 30
0.0
 11
-150.0
 21
294.808
 31
0.0
  0
LINE
  5
9D
330
3A1
100
AcDbEntity
  8
0
100
AcDbLine
 10
-150.0
 20
294.808
 30
0.0
 11
-146.569
 21
294.639
 31
0.0
  0
LINE
  5
9E
330
3A1
100
AcDbEntity
  8
0
100
AcDbLine
 10
-146.569
 20
294.639
 30
0.0
 11
-143.172
 21
294.135
 31
0.0
  0
LINE
  5
9F
330
3A1
100
AcDbEntity
  8
0
100
AcDbLine
 10
-143.172
 20
294.135
 30
0.0
 11
-139.84
 21
293.301
 31
0.0
  0
LINE
  5
A0
330
3A1
100
AcDbEntity
  8
0
100
AcDbLine
 10
-139.84
 20
293.301
 30
0.0
 11
-136.606
 21
292.143
 31
0.0
  0
LINE
  5
A1
330
3A1
100
AcDbEntity
  8
0
100
AcDbLine
 10
-136.606
 20
292.143
 30
0.0
 11
-133.501
 21
290.675
 31
0.0
  0
LINE
  5
A2
330
3A1
100
AcDbEntity
  8
0
100
AcDbLine
 10
-133.501
 20
290.675
 30
0.0
 11
-130.555
 21
288.909
 31
0.0
  0
LINE
  5
A3
330
3A1
100
AcDbEntity
  8
0
100
AcDbLine
 10
-130.555
 20
288.909
 30
0.0
 11
-127.796
 21
286.863
 31
0.0
  0
LINE
  5
A4
330
3A1
100
AcDbEntity
  8
0
100
AcDbLine
 10
-127.796
 20
286.863
 30
0.0
 11
-125.251
 21
284.556
 31
0.0
  0
LINE
  5
A5
330
3A1
100
AcDbEntity
  8
0
100
AcDbLine
 10
-125.251
 20
284.556
 30
0.0
 11
-122.945
 21
282.011
 31
0.0
  0
LINE
  5
A6
330
3A1
100
AcDbEntity
  8
0
100
AcDbLine
 10
-122.945
 20
282.011
 30
0.0
 11
-120.899
 21
279.253
 31
0.0
  0
LINE
  5
A7
330
3A1
100
AcDbEntity
  8
0
100
AcDbLine
 10
-120.899
 20
279.253
 30
0.0
 11
-119.133
 21
276.307
 31
0.0
  0
LINE
  5
A8
330
3A1
100
AcDbEntity
  8
0
100
AcDbLine
 10
-119.133
 20
276.307
 30
0.0
 11
-117.664
 21
273.202
 31
0.0
  0
LINE
  5
A9
330
3A1
100
AcDbEntity
  8
0
100
AcDbLine
 10
-117.664
 20
273.202
 30
0.0
 11
-116.507
 21
269.968
 31
0.0
  0
LINE
  5
AA
330
3A1
100
AcDbEntity
  8
0
100
AcDbLine
 10
-116.507
 20
269.968
 30
0.0
 11
-115.673
 21
266.636
 31
0.0
  0
LINE
  5
AB
330
3A1
100
AcDbEntity
  8
0
100
AcDbLine
 10
-115.673
 20
266.636
 30
0.0
 11
-115.169
 21
263.238
 31
0.0
  0
LINE
  5
AC
330
3A1
100
AcDbEntity
  8
0
100
AcDbLine
 10
-115.169
 20
263.238
 30
0.0
 11
-115.0
 21
259.808
 31
0.0
  0
LINE
  5
AD
330
3A1
100
AcDbEntity
  8
0
100
AcDbLine
 10
-115.0
 20
259.808
 30
0.0
 11
-115.169
 21
256.377
 31
0.0
  0
LINE
  5
AE
330
3A1
100
AcDbEntity
  8
0
100
AcDbLine
 10
-115.169
 20
256.377
 30
0.0
 11
-115.673
 21
252.979
 31
0.0
  0
LINE
  5
AF
330
3A1
100
AcDbEntity
  8
0
100
AcDbLine
 10
-115.673
 20
252.979
 30
0.0
 11
-116.507
 21
249.648
 31
0.0
  0
LINE
  5
B0
330
3A1
100
AcDbEntity
  8
0
100
AcDbLine
 10
-116.507
 20
249.648
 30
0.0
 11
-117.664
 21
246.414
 31
0.0
  0
LINE
  5
B1
330
3A1
100
AcDbEntity
  8
0
100
AcDbLine
 10
-117.664
 20
246.414
 30
0.0
 11
-119.133
 21
243.309
 31
0.0
  0
LINE
  5
B2
330
3A1
100
AcDbEntity
  8
0
100
AcDbLine
 10
-119.133
 20
243.309
 30
0.0
 11
-120.899
 21
240.363
 31
0.0
  0
LINE
  5
B3
330
3A1
100
AcDbEntity
  8
0
100
AcDbLine
 10
-120.899
 20
240.363
 30
0.0
 11
-122.945
 21
237.604
 31
0.0
  0
LINE
  5
B4
330
3A1
100
AcDbEntity
  8
0
100
AcDbLine
 10
-122.945
 20
237.604
 30
0.0
 11
-125.251
 21
235.059
 31
0.0
  0
LINE
  5
B5
330
3A1
100
AcDbEntity
  8
0
100
AcDbLine
 10
-125.251
 20
235.059
 30
0.0
 11
-127.796
 21
232.752
 31
0.0
  0
LINE
  5
B6
330
3A1
100
AcDbEntity
  8
0
100
AcDbLine
 10
-127.796
 20
232.752
 30
0.0
 11
-130.555
 21
230.706
 31
0.0
  0
LINE
  5
B7
330
3A1
100
AcDbEntity
  8
0
100
AcDbLine
 10
-130.555
 20
230.706
 30
0.0
 11
-133.501
 21
228.94
 31
0.0
  0
LINE
  5
B8
330
3A1
100
AcDbEntity
  8
0
100
AcDbLine
 10
-133.501
 20
228.94
 30
0.0
 11
-136.606
 21
227.472
 31
0.0
  0
LINE
  5
B9
330
3A1
100
AcDbEntity
  8
0
100
AcDbLine
 10
-136.606
 20
227.472
 30
0.0
 11
-139.84
 21
226.315
 31
0.0
  0
LINE
  5
BA
330
3A1
100
AcDbEntity
  8
0
100
AcDbLine
 10
-139.84
 20
226.315
 30
0.0
 11
-143.172
 21
225.48
 31
0.0
  0
LINE
  5
BB
330
3A1
100
AcDbEntity
  8
0
100
AcDbLine
 10
-143.172
 20
225.48
 30
0.0
 11
-146.569
 21
224.976
 31
0.0
  0
LINE
  5
BC
330
3A1
100
AcDbEntity
  8
0
100
AcDbLine
 10
-146.569
 20
224.976
 30
0.0
 11
-150.0
 21
224.808
 31
0.0
  0
LINE
  5
BD
330
3A1
100
AcDbEntity
  8
0
100
AcDbLine
 10
-150.0
 20
224.808
 30
0.0
 11
-153.431
 21
224.976
 31
0.0
  0
LINE
  5
BE
330
3A1
100
AcDbEntity
  8
0
100
AcDbLine
 10
146.569
 20
224.976
 30
0.0
 11
143.172
 21
225.48
 31
0.0
  0
LINE
  5
BF
330
3A1
100
AcDbEntity
  8
0
100
AcDbLine
 10
143.172
 20
225.48
 30
0.0
 11
139.84
 21
226.315
 31
0.0
  0
LINE
  5
C0
330
3A1
100
AcDbEntity
  8
0
100
AcDbLine
 10
139.84
 20
226.315
 30
0.0
 11
136.606
 21
227.472
 31
0.0
  0
LINE
  5
C1
330
3A1
100
AcDbEntity
  8
0
100
AcDbLine
 10
136.606
 20
227.472
 30
0.0
 11
133.501
 21
228.94
 31
0.0
  0
LINE
  5
C2
330
3A1
100
AcDbEntity
  8
0
100
AcDbLine
 10
133.501
 20
228.94
 30
0.0
 11
130.555
 21
230.706
 31
0.0
  0
LINE
  5
C3
330
3A1
100
AcDbEntity
  8
0
100
AcDbLine
 10
130.555
 20
230.706
 30
0.0
 11
127.796
 21
232.752
 31
0.0
  0
LINE
  5
C4
330
3A1
100
AcDbEntity
  8
0
100
AcDbLine
 10
127.796
 20
232.752
 30
0.0
 11
125.251
 21
235.059
 31
0.0
  0
LINE
  5
C5
330
3A1
100
AcDbEntity
  8
0
100
AcDbLine
 10
125.251
 20
235.059
 30
0.0
 11
122.945
 21
237.604
 31
0.0
  0
LINE
  5
C6
330
3A1
100
AcDbEntity
  8
0
100
AcDbLine
 10
122.945
 20
237.604
 30
0.0
 11
120.899
 21
240.363
 31
0.0
  0
LINE
  5
C7
330
3A1
100
AcDbEntity
  8
0
100
AcDbLine
 10
120.899
 20
240.363
 30
0.0
 11
119.133
 21
243.309
 31
0.0
  0
LINE
  5
C8
330
3A1
100
AcDbEntity
  8
0
100
AcDbLine
 10
119.133
 20
243.309
 30
0.0
 11
117.664
 21
246.414
 31
0.0
  0
LINE
  5
C9
330
3A1
100
AcDbEntity
  8
0
100
AcDbLine
 10
117.664
 20
246.414
 30
0.0
 11
116.507
 21
249.648
 31
0.0
  0
LINE
  5
CA
330
3A1
100
AcDbEntity
  8
0
100
AcDbLine
 10
116.507
 20
249.648
 30
0.0
 11
115.673
 21
252.979
 31
0.0
  0
LINE
  5
CB
330
3A1
100
AcDbEntity
  8
0
100
AcDbLine
 10
115.673
 20
252.979
 30
0.0
 11
115.169
 21
256.377
 31
0.0
  0
LINE
  5
CC
330
3A1
100
AcDbEntity
  8
0
100
AcDbLine
 10
115.169
 20
256.377
 30
0.0
 11
115.0
 21
259.808
 31
0.0
  0
LINE
  5
CD
330
3A1
100
AcDbEntity
  8
0
100
AcDbLine
 10
115.0
 20
259.808
 30
0.0
 11
115.169
 21
263.238
 31
0.0
  0
LINE
  5
CE
330
3A1
100
AcDbEntity
  8
0
100
AcDbLine
 10
115.169
 20
263.238
 30
0.0
 11
115.673
 21
266.636
 31
0.0
  0
LINE
  5
CF
330
3A1
100
AcDbEntity
  8
0
100
AcDbLine
 10
115.673
 20
266.636
 30
0.0
 11
116.507
 21
269.968
 31
0.0
  0
LINE
  5
D0
330
3A1
100
AcDbEntity
  8
0
100
AcDbLine
 10
116.507
 20
269.968
 30
0.0
 11
117.664
 21
273.202
 31
0.0
  0
LINE
  5
D1
330
3A1
100
AcDbEntity
  8
0
100
AcDbLine
 10
117.664
 20
273.202
 30
0.0
 11
119.133
 21
276.307
 31
0.0
  0
LINE
  5
D2
330
3A1
100
AcDbEntity
  8
0
100
AcDbLine
 10
119.133
 20
276.307
 30
0.0
 11
120.899
 21
279.253
 31
0.0
  0
LINE
  5
D3
330
3A1
100
AcDbEntity
  8
0
100
AcDbLine
 10
120.899
 20
279.253
 30
0.0
 11
122.945
 21
282.011
 31
0.0
  0
LINE
  5
D4
330
3A1
100
AcDbEntity
  8
0
100
AcDbLine
 10
122.945
 20
282.011
 30
0.0
 11
125.251
 21
284.556
 31
0.0
  0
LINE
  5
D5
330
3A1
100
AcDbEntity
  8
0
100
AcDbLine
 10
125.251
 20
284.556
 30
0.0
 11
127.796
 21
286.863
 31
0.0
  0
LINE
  5
D6
330
3A1
100
AcDbEntity
  8
0
100
AcDbLine
 10
127.796
 20
286.863
 30
0.0
 11
130.555
 21
288.909
 31
0.0
  0
LINE
  5
D7
330
3A1
100
AcDbEntity
  8
0
100
AcDbLine
 10
130.555
 20
288.909
 30
0.0
 11
133.501
 21
290.675
 31
0.0
  0
LINE
  5
D8
330
3A1
100
AcDbEntity
  8
0
100
AcDbLine
 10
133.501
 20
290.675
 30
0.0
 11
136.606
 21
292.143
 31
0.0
  0
LINE
  5
D9
330
3A1
100
AcDbEntity
  8
0
100
AcDbLine
 10
136.606
 20
292.143
 30
0.0
 11
139.84
 21
293.301
 31
0.0
  0
LINE
  5
DA
330
3A1
100
AcDbEntity
  8
0
100
AcDbLine
 10
139.84
 20
293.301
 30
0.0
 11
143.172
 21
294.135
 31
0.0
  0
LINE
  5
DB
330
3A1
100
AcDbEntity
  8
0
100
AcDbLine
 10
143.172
 20
294.135
 30
0.0
 11
146.569
 21
294.639
 31
0.0
  0
LINE
  5
DC
330
3A1
100
AcDbEntity
  8
0
100
AcDbLine
 10
146.569
 20
294.639
 30
0.0
 11
150.0
 21
294.808
 31
0.0
  0
LINE
  5
DD
330
3A1
100
AcDbEntity
  8
0
100
AcDbLine
 10
150.0
 20
294.808
 30
0.0
 11
153.431
 21
294.639
 31
0.0
  0
LINE
  5
DE
330
3A1
100
AcDbEntity
  8
0
100
AcDbLine
 10
153.431
 20
294.639
 30
0.0
 11
156.828
 21
294.135
 31
0.0
  0
LINE
  5
DF
330
3A1
100
AcDbEntity
  8
0
100
AcDbLine
 10
156.828
 20
294.135
 30
0.0
 11
160.16
 21
293.301
 31
0.0
  0
LINE
  5
E0
330
3A1
100
AcDbEntity
  8
0
100
AcDbLine
 10
160.16
 20
293.301
 30
0.0
 11
163.394
 21
292.143
 31
0.0
  0
LINE
  5
E1
330
3A1
100
AcDbEntity
  8
0
100
AcDbLine
 10
163.394
 20
292.143
 30
0.0
 11
166.499
 21
290.675
 31
0.0
  0
LINE
  5
E2
330
3A1
100
AcDbEntity
  8
0
100
AcDbLine
 10
166.499
 20
290.675
 30
0.0
 11
169.445
 21
288.909
 31
0.0
  0
LINE
  5
E3
330
3A1
100
AcDbEntity
  8
0
100
AcDbLine
 10
169.445
 20
288.909
 30
0.0
 11
172.204
 21
286.863
 31
0.0
  0
LINE
  5
E4
330
3A1
100
AcDbEntity
  8
0
100
AcDbLine
 10
172.204
 20
286.863
 30
0.0
 11
174.749
 21
284.556
 31
0.0
  0
LINE
  5
E5
330
3A1
100
AcDbEntity
  8
0
100
AcDbLine
 10
174.749
 20
284.556
 30
0.0
 11
177.055
 21
282.011
 31
0.0
  0
LINE
  5
E6
330
3A1
100
AcDbEntity
  8
0
100
AcDbLine
 10
177.055
 20
282.011
 30
0.0
 11
179.101
 21
279.253
 31
0.0
  0
LINE
  5
E7
330
3A1
100
AcDbEntity
  8
0
100
AcDbLine
 10
179.101
 20
279.253
 30
0.0
 11
180.867
 21
276.307
 31
0.0
  0
LINE
  5
E8
330
3A1
100
AcDbEntity
  8
0
100
AcDbLine
 10
180.867
 20
276.307
 30
0.0
 11
182.336
 21
273.202
 31
0.0
  0
LINE
  5
E9
330
3A1
100
AcDbEntity
  8
0
100
AcDbLine
 10
182.336
 20
273.202
 30
0.0
 11
183.493
 21
269.968
 31
0.0
  0
LINE
  5
EA
330
3A1
100
AcDbEntity
  8
0
100
AcDbLine
 10
183.493
 20
269.968
 30
0.0
 11
184.327
 21
266.636
 31
0.0
  0
LINE
  5
EB
330
3A1
100
AcDbEntity
  8
0
100
AcDbLine
 10
184.327
 20
266.636
 30
0.0
 11
184.831
 21
263.238
 31
0.0
  0
LINE
  5
EC
330
3A1
100
AcDbEntity
  8
0
100
AcDbLine
 10
184.831
 20
263.238
 30
0.0
 11
185.0
 21
259.808
 31
0.0
  0
LINE
  5
ED
330
3A1
100
AcDbEntity
  8
0
100
AcDbLine
 10
185.0
 20
259.808
 30
0.0
 11
184.831
 21
256.377
 31
0.0
  0
LINE
  5
EE
330
3A1
100
AcDbEntity
  8
0
100
AcDbLine
 10
184.831
 20
256.377
 30
0.0
 11
184.327
 21
252.979
 31
0.0
  0
LINE
  5
EF
330
3A1
100
AcDbEntity
  8
0
100
AcDbLine
 10
184.327
 20
252.979
 30
0.0
 11
183.493
 21
249.648
 31
0.0
  0
LINE
  5
F0
330
3A1
100
AcDbEntity
  8
0
100
AcDbLine
 10
183.493
 20
249.648
 30
0.0
 11
182.336
 21
246.414
 31
0.0
  0
LINE
  5
F1
330
3A1
100
AcDbEntity
  8
0
100
AcDbLine
 10
182.336
 20
246.414
 30
0.0
 11
180.867
 21
243.309
 31
0.0
  0
LINE
  5
F2
330
3A1
100
AcDbEntity
  8
0
100
AcDbLine
 10
180.867
 20
243.309
 30
0.0
 11
179.101
 21
240.363
 31
0.0
  0
LINE
  5
F3
330
3A1
100
AcDbEntity
  8
0
100
AcDbLine
 10
179.101
 20
240.363
 30
0.0
 11
177.055
 21
237.604
 31
0.0
  0
LINE
  5
F4
330
3A1
100
AcDbEntity
  8
0
100
AcDbLine
 10
177.055
 20
237.604
 30
0.0
 11
174.749
 21
235.059
 31
0.0
  0
LINE
  5
F5
330
3A1
100
AcDbEntity
  8
0
100
AcDbLine
 10
174.749
 20
235.059
 30
0.0
 11
172.204
 21
232.752
 31
0.0
  0
LINE
  5
F6
330
3A1
100
AcDbEntity
  8
0
100
AcDbLine
 10
172.204
 20
232.752
 30
0.0
 11
169.445
 21
230.706
 31
0.0
  0
LINE
  5
F7
330
3A1
100
AcDbEntity
  8
0
100
AcDbLine
 10
169.445
 20
230.706
 30
0.0
 11
166.499
 21
228.94
 31
0.0
  0
LINE
  5
F8
330
3A1
100
AcDbEntity
  8
0
100
AcDbLine
 10
166.499
 20
228.94
 30
0.0
 11
163.394
 21
227.472
 31
0.0
  0
LINE
  5
F9
330
3A1
100
AcDbEntity
  8
0
100
AcDbLine
 10
163.394
 20
227.472
 30
0.0
 11
160.16
 21
226.315
 31
0.0
  0
LINE
  5
FA
330
3A1
100
AcDbEntity
  8
0
100
AcDbLine
 10
160.16
 20
226.315
 30
0.0
 11
156.828
 21
225.48
 31
0.0
  0
LINE
  5
FB
330
3A1
100
AcDbEntity
  8
0
100
AcDbLine
 10
156.828
 20
225.48
 30
0.0
 11
153.431
 21
224.976
 31
0.0
  0
LINE
  5
FC
330
3A1
100
AcDbEntity
  8
0
100
AcDbLine
 10
153.431
 20
224.976
 30
0.0
 11
150.0
 21
224.808
 31
0.0
  0
LINE
  5
FD
330
3A1
100
AcDbEntity
  8
0
100
AcDbLine
 10
150.0
 20
224.808
 30
0.0
 11
146.569
 21
224.976
 31
0.0
  0
LINE
  5
FE
330
3A1
100
AcDbEntity
  8
0
100
AcDbLine
 10
-3.43059
 20
224.976
 30
0.0
 11
-6.82816
 21
225.48
 31
0.0
  0
LINE
  5
FF
330
3A1
100
AcDbEntity
  8
0
100
AcDbLine
 10
-6.82816
 20
225.48
 30
0.0
 11
-10.16
 21
226.315
 31
0.0
  0
LINE
  5
100
330
3A1
100
AcDbEntity
  8
0
100
AcDbLine
 10
-10.16
 20
226.315
 30
0.0
 11
-13.3939
 21
227.472
 31
0.0
  0
LINE
  5
101
330
3A1
100
AcDbEntity
  8
0
100
AcDbLine
 10
-13.3939
 20
227.472
 30
0.0
 11
-16.4989
 21
228.94
 31
0.0
  0
LINE
  5
102
330
3A1
100
AcDbEntity
  8
0
100
AcDbLine
 10
-16.4989
 20
228.94
 30
0.0
 11
-19.4449
 21
230.706
 31
0.0
  0
LINE
  5
103
330
3A1
100
AcDbEntity
  8
0
100
AcDbLine
 10
-19.4449
 20
230.706
 30
0.0
 11
-22.2038
 21
232.752
 31
0.0
  0
LINE
  5
104
330
3A1
100
AcDbEntity
  8
0
100
AcDbLine
 10
-22.2038
 20
232.752
 30
0.0
 11
-24.7487
 21
235.059
 31
0.0
  0
LINE
  5
105
330
3A1
100
AcDbEntity
  8
0
100
AcDbLine
 10
-24.7487
 20
235.059
 30
0.0
 11
-27.0554
 21
237.604
 31
0.0
  0
LINE
  5
106
330
3A1
100
AcDbEntity
  8
0
100
AcDbLine
 10
-27.0554
 20
237.604
 30
0.0
 11
-29.1014
 21
240.363
 31
0.0
  0
LINE
  5
107
330
3A1
100
AcDbEntity
  8
0
100
AcDbLine
 10
-29.1014
 20
240.363
 30
0.0
 11
-30.8672
 21
243.309
 31
0.0
  0
LINE
  5
108
330
3A1
100
AcDbEntity
  8
0
100
AcDbLine
 10
-30.8672
 20
243.309
 30
0.0
 11
-32.3358
 21
246.414
 31
0.0
  0
LINE
  5
109
330
3A1
100
AcDbEntity
  8
0
100
AcDbLine
 10
-32.3358
 20
246.414
 30
0.0
 11
-33.4929
 21
249.648
 31
0.0
  0
LINE
  5
10A
330
3A1
100
AcDbEntity
  8
0
100
AcDbLine
 10
-33.4929
 20
249.648
 30
0.0
 11
-34.3275
 21
252.979
 31
0.0
  0
LINE
  5
10B
330
3A1
100
AcDbEntity
  8
0
100
AcDbLine
 10
-34.3275
 20
252.979
 30
0.0
 11
-34.8315
 21
256.377
 31
0.0
  0
LINE
  5
10C
330
3A1
100
AcDbEntity
  8
0
100
AcDbLine
 10
-34.8315
 20
256.377
 30
0.0
 11
-35.0
 21
259.808
 31
0.0
  0
LINE
  5
10D
330
3A1
100
AcDbEntity
  8
0
100
AcDbLine
 10
-35.0
 20
259.808
 30
0.0
 11
-34.8315
 21
263.238
 31
0.0
  0
LINE
  5
10E
330
3A1
100
AcDbEntity
  8
0
100
AcDbLine
 10
-34.8315
 20
263.238
 30
0.0
 11
-34.3275
 21
266.636
 31
0.0
  0
LINE
  5
10F
330
3A1
100
AcDbEntity
  8
0
100
AcDbLine
 10
-34.3275
 20
266.636
 30
0.0
 11
-33.4929
 21
269.968
 31
0.0
  0
LINE
  5
110
330
3A1
100
AcDbEntity
  8
0
100
AcDbLine
 10
-33.4929
 20
269.968
 30
0.0
 11
-32.3358
 21
273.202
 31
0.0
  0
LINE
  5
111
330
3A1
100
AcDbEntity
  8
0
100
AcDbLine
 10
-32.3358
 20
273.202
 30
0.0
 11
-30.8672
 21
276.307
 31
0.0
  0
LINE
  5
112
330
3A1
100
AcDbEntity
  8
0
100
AcDbLine
 10
-30.8672
 20
276.307
 30
0.0
 11
-29.1014
 21
279.253
 31
0.0
  0
LINE
  5
113
330
3A1
100
AcDbEntity
  8
0
100
AcDbLine
 10
-29.1014
 20
279.253
 30
0.0
 11
-27.0554
 21
282.011
 31
0.0
  0
LINE
  5
114
330
3A1
100
AcDbEntity
  8
0
100
AcDbLine
 10
-27.0554
 20
282.011
 30
0.0
 11
-24.7487
 21
284.556
 31
0.0
  0
LINE
  5
115
330
3A1
100
AcDbEntity
  8
0
100
AcDbLine
 10
-24.7487
 20
284.556
 30
0.0
 11
-22.2038
 21
286.863
 31
0.0
  0
LINE
  5
116
330
3A1
100
AcDbEntity
  8
0
100
AcDbLine
 10
-22.2038
 20
286.863
 30
0.0
 11
-19.4449
 21
288.909
 31
0.0
  0
LINE
  5
117
330
3A1
100
AcDbEntity
  8
0
100
AcDbLine
 10
-19.4449
 20
288.909
 30
0.0
 11
-16.4989
 21
290.675
 31
0.0
  0
LINE
  5
118
330
3A1
100
AcDbEntity
  8
0
100
AcDbLine
 10
-16.4989
 20
290.675
 30
0.0
 11
-13.3939
 21
292.143
 31
0.0
  0
LINE
  5
119
330
3A1
100
AcDbEntity
  8
0
100
AcDbLine
 10
-13.3939
 20
292.143
 30
0.0
 11
-10.16
 21
293.301
 31
0.0
  0
LINE
  5
11A
330
3A1
100
AcDbEntity
  8
0
100
AcDbLine
 10
-10.16
 20
293.301
 30
0.0
 11
-6.82816
 21
294.135
 31
0.0
  0
LINE
  5
11B
330
3A1
100
AcDbEntity
  8
0
100
AcDbLine
 10
-6.82816
 20
294.135
 30
0.0
 11
-3.43059
 21
294.639
 31
0.0
  0
LINE
  5
11C
330
3A1
100
AcDbEntity
  8
0
100
AcDbLine
 10
-3.43059
 20
294.639
 30
0.0
 11
0.0
 21
294.808
 31
0.0
  0
LINE
  5
11D
330
3A1
100
AcDbEntity
  8
0
100
AcDbLine
 10
0.0
 20
294.808
 30
0.0
 11
3.43059
 21
294.639
 31
0.0
  0
LINE
  5
11E
330
3A1
100
AcDbEntity
  8
0
100
AcDbLine
 10
3.43059
 20
294.639
 30
0.0
 11
6.82816
 21
294.135
 31
0.0
  0
LINE
  5
11F
330
3A1
100
AcDbEntity
  8
0
100
AcDbLine
 10
6.82816
 20
294.135
 30
0.0
 11
10.16
 21
293.301
 31
0.0
  0
LINE
  5
120
330
3A1
100
AcDbEntity
  8
0
100
AcDbLine
 10
10.16
 20
293.301
 30
0.0
 11
13.3939
 21
292.143
 31
0.0
  0
LINE
  5
121
330
3A1
100
AcDbEntity
  8
0
100
AcDbLine
 10
13.3939
 20
292.143
 30
0.0
 11
16.4989
 21
290.675
 31
0.0
  0
LINE
  5
122
330
3A1
100
AcDbEntity
  8
0
100
AcDbLine
 10
16.4989
 20
290.675
 30
0.0
 11
19.4449
 21
288.909
 31
0.0
  0
LINE
  5
123
330
3A1
100
AcDbEntity
  8
0
100
AcDbLine
 10
19.4449
 20
288.909
 30
0.0
 11
22.2038
 21
286.863
 31
0.0
  0
LINE
  5
124
330
3A1
100
AcDbEntity
  8
0
100
AcDbLine
 10
22.2038
 20
286.863
 30
0.0
 11
24.7487
 21
284.556
 31
0.0
  0
LINE
  5
125
330
3A1
100
AcDbEntity
  8
0
100
AcDbLine
 10
24.7487
 20
284.556
 30
0.0
 11
27.0554
 21
282.011
 31
0.0
  0
LINE
  5
126
330
3A1
100
AcDbEntity
  8
0
100
AcDbLine
 10
27.0554
 20
282.011
 30
0.0
 11
29.1014
 21
279.253
 31
0.0
  0
LINE
  5
127
330
3A1
100
AcDbEntity
  8
0
100
AcDbLine
 10
29.1014
 20
279.253
 30
0.0
 11
30.8672
 21
276.307
 31
0.0
  0
LINE
  5
128
330
3A1
100
AcDbEntity
  8
0
100
AcDbLine
 10
30.8672
 20
276.307
 30
0.0
 11
32.3358
 21
273.202
 31
0.0
  0
LINE
  5
129
330
3A1
100
AcDbEntity
  8
0
100
AcDbLine
 10
32.3358
 20
273.202
 30
0.0
 11
33.4929
 21
269.968
 31
0.0
  0
LINE
  5
12A
330
3A1
100
AcDbEntity
  8
0
100
AcDbLine
 10
33.4929
 20
269.968
 30
0.0
 11
34.3275
 21
266.636
 31
0.0
  0
LINE
  5
12B
330
3A1
100
AcDbEntity
  8
0
100
AcDbLine
 10
34.3275
 20
266.636
 30
0.0
 11
34.8315
 21
263.238
 31
0.0
  0
LINE
  5
12C
330
3A1
100
AcDbEntity
  8
0
100
AcDbLine
 10
34.8315
 20
263.238
 30
0.0
 11
35.0
 21
259.808
 31
0.0
  0
LINE
  5
12D
330
3A1
100
AcDbEntity
  8
0
100
AcDbLine
 10
35.0
 20
259.808
 30
0.0
 11
34.8315
 21
256.377
 31
0.0
  0
LINE
  5
12E
330
3A1
100
AcDbEntity
  8
0
100
AcDbLine
 10
34.8315
 20
256.377
 30
0.0
 11
34.3275
 21
252.979
 31
0.0
  0
LINE
  5
12F
330
3A1
100
AcDbEntity
  8
0
100
AcDbLine
 10
34.3275
 20
252.979
 30
0.0
 11
33.4929
 21
249.648
 31
0.0
  0
LINE
  5
130
330
3A1
100
AcDbEntity
  8
0
100
AcDbLine
 10
33.4929
 20
249.648
 30
0.0
 11
32.3358
 21
246.414
 31
0.0
  0
LINE
  5
131
330
3A1
100
AcDbEntity
  8
0
100
AcDbLine
 10
32.3358
 20
246.414
 30
0.0
 11
30.8672
 21
243.309
 31
0.0
  0
LINE
  5
132
330
3A1
100
AcDbEntity
  8
0
100
AcDbLine
 10
30.8672
 20
243.309
 30
0.0
 11
29.1014
 21
240.363
 31
0.0
  0
LINE
  5
133
330
3A1
100
AcDbEntity
  8
0
100
AcDbLine
 10
29.1014
 20
240.363
 30
0.0
 11
27.0554
 21
237.604
 31
0.0
  0
LINE
  5
134
330
3A1
100
AcDbEntity
  8
0
100
AcDbLine
 10
27.0554
 20
237.604
 30
0.0
 11
24.7487
 21
235.059
 31
0.0
  0
LINE
  5
135
330
3A1
100
AcDbEntity
  8
0
100
AcDbLine
 10
24.7487
 20
235.059
 30
0.0
 11
22.2038
 21
232.752
 31
0.0
  0
LINE
  5
136
330
3A1
100
AcDbEntity
  8
0
100
AcDbLine
 10
22.2038
 20
232.752
 30
0.0
 11
19.4449
 21
230.706
 31
0.0
  0
LINE
  5
137
330
3A1
100
AcDbEntity
  8
0
100
AcDbLine
 10
19.4449
 20
230.706
 30
0.0
 11
16.4989
 21
228.94
 31
0.0
  0
LINE
  5
138
330
3A1
100
AcDbEntity
  8
0
100
AcDbLine
 10
16.4989
 20
228.94
 30
0.0
 11
13.3939
 21
227.472
 31
0.0
  0
LINE
  5
139
330
3A1
100
AcDbEntity
  8
0
100
AcDbLine
 10
13.3939
 20
227.472
 30
0.0
 11
10.16
 21
226.315
 31
0.0
  0
LINE
  5
13A
330
3A1
100
AcDbEntity
  8
0
100
AcDbLine
 10
10.16
 20
226.315
 30
0.0
 11
6.82816
 21
225.48
 31
0.0
  0
LINE
  5
13B
330
3A1
100
AcDbEntity
  8
0
100
AcDbLine
 10
6.82816
 20
225.48
 30
0.0
 11
3.43059
 21
224.976
 31
0.0
  0
LINE
  5
13C
330
3A1
100
AcDbEntity
  8
0
100
AcDbLine
 10
3.43059
 20
224.976
 30
0.0
 11
0.0
 21
224.808
 31
0.0
  0
LINE
  5
13D
330
3A1
100
AcDbEntity
  8
0
100
AcDbLine
 10
0.0
 20
224.808
 30
0.0
 11
-3.43059
 21
224.976
 31
0.0
  0
LINE
  5
13E
330
3A1
100
AcDbEntity
  8
0
100
AcDbLine
 10
-106.745
 20
-184.808
 30
0.0
 11
-213.444
 21
0.0
 31
0.0
  0
LINE
  5
13F
330
3A1
100
AcDbEntity
  8
0
100
AcDbLine
 10
-213.444
 20
0.0
 30
0.0
 11
-106.745
 21
184.808
 31
0.0
  0
LINE
  5
140
330
3A1
100
AcDbEntity
  8
0
100
AcDbLine
 10
-106.745
 20
184.808
 30
0.0
 11
106.745
 21
184.808
 31
0.0
  0
LINE
  5
141
330
3A1
100
AcDbEntity
  8
0
100
AcDbLine
 10
106.745
 20
184.808
 30
0.0
 11
213.444
 21
0.0
 31
0.0
  0
LINE
  5
142
330
3A1
100
AcDbEntity
  8
0
100
AcDbLine
 10
213.444
 20
0.0
 30
0.0
 11
106.745
 21
-184.808
 31
0.0
  0
LINE
  5
143
330
3A1
100
AcDbEntity
  8
0
100
AcDbLine
 10
106.745
 20
-184.808
 30
0.0
 11
-106.745
 21
-184.808
 31
0.0
  0
LINE
  5
144
330
3A1
100
AcDbEntity
  8
0
100
AcDbLine
 10
-228.431
 20
95.0723
 30
0.0
 11
-231.828
 21
95.5763
 31
0.0
  0
LINE
  5
145
330
3A1
100
AcDbEntity
  8
0
100
AcDbLine
 10
-231.828
 20
95.5763
 30
0.0
 11
-235.16
 21
96.4109
 31
0.0
  0
LINE
  5
146
330
3A1
100
AcDbEntity
  8
0
100
AcDbLine
 10
-235.16
 20
96.4109
 30
0.0
 11
-238.394
 21
97.568
 31
0.0
  0
LINE
  5
147
330
3A1
100
AcDbEntity
  8
0
100
AcDbLine
 10
-238.394
 20
97.568
 30
0.0
 11
-241.499
 21
99.0366
 31
0.0
  0
LINE
  5
148
330
3A1
100
AcDbEntity
  8
0
100
AcDbLine
 10
-241.499
 20
99.0366
 30
0.0
 11
-244.445
 21
100.802
 31
0.0
  0
LINE
  5
149
330
3A1
100
AcDbEntity
  8
0
100
AcDbLine
 10
-244.445
 20
100.802
 30
0.0
 11
-247.204
 21
102.848
 31
0.0
  0
LINE
  5
14A
330
3A1
100
AcDbEntity
  8
0
100
AcDbLine
 10
-247.204
 20
102.848
 30
0.0
 11
-249.749
 21
105.155
 31
0.0
  0
LINE
  5
14B
330
3A1
100
AcDbEntity
  8
0
100
AcDbLine
 10
-249.749
 20
105.155
 30
0.0
 11
-252.055
 21
107.7
 31
0.0
  0
LINE
  5
14C
330
3A1
100
AcDbEntity
  8
0
100
AcDbLine
 10
-252.055
 20
107.7
 30
0.0
 11
-254.101
 21
110.459
 31
0.0
  0
LINE
  5
14D
330
3A1
100
AcDbEntity
  8
0
100
AcDbLine
 10
-254.101
 20
110.459
 30
0.0
 11
-255.867
 21
113.405
 31
0.0
  0
LINE
  5
14E
330
3A1
100
AcDbEntity
  8
0
100
AcDbLine
 10
-255.867
 20
113.405
 30
0.0
 11
-257.336
 21
116.51
 31
0.0
  0
LINE
  5
14F
330
3A1
100
AcDbEntity
  8
0
100
AcDbLine
 10
-257.336
 20
116.51
 30
0.0
 11
-258.493
 21
119.744
 31
0.0
  0
LINE
  5
150
330
3A1
100
AcDbEntity
  8
0
100
AcDbLine
 10
-258.493
 20
119.744
 30
0.0
 11
-259.327
 21
123.076
 31
0.0
  0
LINE
  5
151
330
3A1
100
AcDbEntity
  8
0
100
AcDbLine
 10
-259.327
 20
123.076
 30
0.0
 11
-259.831
 21
126.473
 31
0.0
  0
LINE
  5
152
330
3A1
100
AcDbEntity
  8
0
100
AcDbLine
 10
-259.831
 20
126.473
 30
0.0
 11
-260.0
 21
129.904
 31
0.0
  0
LINE
  5
153
330
3A1
100
AcDbEntity
  8
0
100
AcDbLine
 10
-260.0
 20
129.904
 30
0.0
 11
-259.831
 21
133.334
 31
0.0
  0
LINE
  5
154
330
3A1
100
AcDbEntity
  8
0
100
AcDbLine
 10
-259.831
 20
133.334
 30
0.0
 11
-259.327
 21
136.732
 31
0.0
  0
LINE
  5
155
330
3A1
100
AcDbEntity
  8
0
100
AcDbLine
 10
-259.327
 20
136.732
 30
0.0
 11
-258.493
 21
140.064
 31
0.0
  0
LINE
  5
156
330
3A1
100
AcDbEntity
  8
0
100
AcDbLine
 10
-258.493
 20
140.064
 30
0.0
 11
-257.336
 21
143.298
 31
0.0
  0
LINE
  5
157
330
3A1
100
AcDbEntity
  8
0
100
AcDbLine
 10
-257.336
 20
143.298
 30
0.0
 11
-255.867
 21
146.403
 31
0.0
  0
LINE
  5
158
330
3A1
100
AcDbEntity
  8
0
100
AcDbLine
 10
-255.867
 20
146.403
 30
0.0
 11
-254.101
 21
149.349
 31
0.0
  0
LINE
  5
159
330
3A1
100
AcDbEntity
  8
0
100
AcDbLine
 10
-254.101
 20
149.349
 30
0.0
 11
-252.055
 21
152.108
 31
0.0
  0
LINE
  5
15A
330
3A1
100
AcDbEntity
  8
0
100
AcDbLine
 10
-252.055
 20
152.108
 30
0.0
 11
-249.749
 21
154.653
 31
0.0
  0
LINE
  5
15B
330
3A1
100
AcDbEntity
  8
0
100
AcDbLine
 10
-249.749
 20
154.653
 30
0.0
 11
-247.204
 21
156.959
 31
0.0
  0
LINE
  5
15C
330
3A1
100
AcDbEntity
  8
0
100
AcDbLine
 10
-247.204
 20
156.959
 30
0.0
 11
-244.445
 21
159.005
 31
0.0
  0
LINE
  5
15D
330
3A1
100
AcDbEntity
  8
0
100
AcDbLine
 10
-244.445
 20
159.005
 30
0.0
 11
-241.499
 21
160.771
 31
0.0
  0
LINE
  5
15E
330
3A1
100
AcDbEntity
  8
0
100
AcDbLine
 10
-241.499
 20
160.771
 30
0.0
 11
-238.394
 21
162.24
 31
0.0
  0
LINE
  5
15F
330
3A1
100
AcDbEntity
  8
0
100
AcDbLine
 10
-238.394
 20
162.24
 30
0.0
 11
-235.16
 21
163.397
 31
0.0
  0
LINE
  5
160
330
3A1
100
AcDbEntity
  8
0
100
AcDbLine
 10
-235.16
 20
163.397
 30
0.0
 11
-231.828
 21
164.231
 31
0.0
  0
LINE
  5
161
330
3A1
100
AcDbEntity
  8
0
100
AcDbLine
 10
-231.828
 20
164.231
 30
0.0
 11
-228.431
 21
164.735
 31
0.0
  0
LINE
  5
162
330
3A1
100
AcDbEntity
  8
0
100
AcDbLine
 10
-228.431
 20
164.735
 30
0.0
 11
-225.0
 21
164.904
 31
0.0
  0
LINE
  5
163
330
3A1
100
AcDbEntity
  8
0
100
AcDbLine
 10
-225.0
 20
164.904
 30
0.0
 11
-221.569
 21
164.735
 31
0.0
  0
LINE
  5
164
330
3A1
100
AcDbEntity
  8
0
100
AcDbLine
 10
-221.569
 20
164.735
 30
0.0
 11
-218.172
 21
164.231
 31
0.0
  0
LINE
  5
165
330
3A1
100
AcDbEntity
  8
0
100
AcDbLine
 10
-218.172
 20
164.231
 30
0.0
 11
-214.84
 21
163.397
 31
0.0
  0
LINE
  5
166
330
3A1
100
AcDbEntity
  8
0
100
AcDbLine
 10
-214.84
 20
163.397
 30
0.0
 11
-211.606
 21
162.24
 31
0.0
  0
LINE
  5
167
330
3A1
100
AcDbEntity
  8
0
100
AcDbLine
 10
-211.606
 20
162.24
 30
0.0
 11
-208.501
 21
160.771
 31
0.0
  0
LINE
  5
168
330
3A1
100
AcDbEntity
  8
0
100
AcDbLine
 10
-208.501
 20
160.771
 30
0.0
 11
-205.555
 21
159.005
 31
0.0
  0
LINE
  5
169
330
3A1
100
AcDbEntity
  8
0
100
AcDbLine
 10
-205.555
 20
159.005
 30
0.0
 11
-202.796
 21
156.959
 31
0.0
  0
LINE
  5
16A
330
3A1
100
AcDbEntity
  8
0
100
AcDbLine
 10
-202.796
 20
156.959
 30
0.0
 11
-200.251
 21
154.653
 31
0.0
  0
LINE
  5
16B
330
3A1
100
AcDbEntity
  8
0
100
AcDbLine
 10
-200.251
 20
154.653
 30
0.0
 11
-197.945
 21
152.108
 31
0.0
  0
LINE
  5
16C
330
3A1
100
AcDbEntity
  8
0
100
AcDbLine
 10
-197.945
 20
152.108
 30
0.0
 11
-195.899
 21
149.349
 31
0.0
  0
LINE
  5
16D
330
3A1
100
AcDbEntity
  8
0
100
AcDbLine
 10
-195.899
 20
149.349
 30
0.0
 11
-194.133
 21
146.403
 31
0.0
  0
LINE
  5
16E
330
3A1
100
AcDbEntity
  8
0
100
AcDbLine
 10
-194.133
 20
146.403
 30
0.0
 11
-192.664
 21
143.298
 31
0.0
  0
LINE
  5
16F
330
3A1
100
AcDbEntity
  8
0
100
AcDbLine
 10
-192.664
 20
143.298
 30
0.0
 11
-191.507
 21
140.064
 31
0.0
  0
LINE
  5
170
330
3A1
100
AcDbEntity
  8
0
100
AcDbLine
 10
-191.507
 20
140.064
 30
0.0
 11
-190.673
 21
136.732
 31
0.0
  0
LINE
  5
171
330
3A1
100
AcDbEntity
  8
0
100
AcDbLine
 10
-190.673
 20
136.732
 30
0.0
 11
-190.169
 21
133.334
 31
0.0
  0
LINE
  5
172
330
3A1
100
AcDbEntity
  8
0
100
AcDbLine
 10
-190.169
 20
133.334
 30
0.0
 11
-190.0
 21
129.904
 31
0.0
  0
LINE
  5
173
330
3A1
100
AcDbEntity
  8
0
100
AcDbLine
 10
-190.0
 20
129.904
 30
0.0
 11
-190.169
 21
126.473
 31
0.0
  0
LINE
  5
174
330
3A1
100
AcDbEntity
  8
0
100
AcDbLine
 10
-190.169
 20
126.473
 30
0.0
 11
-190.673
 21
123.076
 31
0.0
  0
LINE
  5
175
330
3A1
100
AcDbEntity
  8
0
100
AcDbLine
 10
-190.673
 20
123.076
 30
0.0
 11
-191.507
 21
119.744
 31
0.0
  0
LINE
  5
176
330
3A1
100
AcDbEntity
  8
0
100
AcDbLine
 10
-191.507
 20
119.744
 30
0.0
 11
-192.664
 21
116.51
 31
0.0
  0
LINE
  5
177
330
3A1
100
AcDbEntity
  8
0
100
AcDbLine
 10
-192.664
 20
116.51
 30
0.0
 11
-194.133
 21
113.405
 31
0.0
  0
LINE
  5
178
330
3A1
100
AcDbEntity
  8
0
100
AcDbLine
 10
-194.133
 20
113.405
 30
0.0
 11
-195.899
 21
110.459
 31
0.0
  0
LINE
  5
179
330
3A1
100
AcDbEntity
  8
0
100
AcDbLine
 10
-195.899
 20
110.459
 30
0.0
 11
-197.945
 21
107.7
 31
0.0
  0
LINE
  5
17A
330
3A1
100
AcDbEntity
  8
0
100
AcDbLine
 10
-197.945
 20
107.7
 30
0.0
 11
-200.251
 21
105.155
 31
0.0
  0
LINE
  5
17B
330
3A1
100
AcDbEntity
  8
0
100
AcDbLine
 10
-200.251
 20
105.155
 30
0.0
 11
-202.796
 21
102.848
 31
0.0
  0
LINE
  5
17C
330
3A1
100
AcDbEntity
  8
0
100
AcDbLine
 10
-202.796
 20
102.848
 30
0.0
 11
-205.555
 21
100.802
 31
0.0
  0
LINE
  5
17D
330
3A1
100
AcDbEntity
  8
0
100
AcDbLine
 10
-205.555
 20
100.802
 30
0.0
 11
-208.501
 21
99.0366
 31
0.0
  0
LINE
  5
17E
330
3A1
100
AcDbEntity
  8
0
100
AcDbLine
 10
-208.501
 20
99.0366
 30
0.0
 11
-211.606
 21
97.568
 31
0.0
  0
LINE
  5
17F
330
3A1
100
AcDbEntity
  8
0
100
AcDbLine
 10
-211.606
 20
97.568
 30
0.0
 11
-214.84
 21
96.4109
 31
0.0
  0
LINE
  5
180
330
3A1
100
AcDbEntity
  8
0
100
AcDbLine
 10
-214.84
 20
96.4109
 30
0.0
 11
-218.172
 21
95.5763
 31
0.0
  0
LINE
  5
181
330
3A1
100
AcDbEntity
  8
0
100
AcDbLine
 10
-218.172
 20
95.5763
 30
0.0
 11
-221.569
 21
95.0723
 31
0.0
  0
LINE
  5
182
330
3A1
100
AcDbEntity
  8
0
100
AcDbLine
 10
-221.569
 20
95.0723
 30
0.0
 11
-225.0
 21
94.9038
 31
0.0
  0
LINE
  5
183
330
3A1
100
AcDbEntity
  8
0
100
AcDbLine
 10
-225.0
 20
94.9038
 30
0.0
 11
-228.431
 21
95.0723
 31
0.0
  0
LINE
  5
184
330
3A1
100
AcDbEntity
  8
0
100
AcDbLine
 10
221.569
 20
95.0723
 30
0.0
 11
218.172
 21
95.5763
 31
0.0
  0
LINE
  5
185
330
3A1
100
AcDbEntity
  8
0
100
AcDbLine
 10
218.172
 20
95.5763
 30
0.0
 11
214.84
 21
96.4109
 31
0.0
  0
LINE
  5
186
330
3A1
100
AcDbEntity
  8
0
100
AcDbLine
 10
214.84
 20
96.4109
 30
0.0
 11
211.606
 21
97.568
 31
0.0
  0
LINE
  5
187
330
3A1
100
AcDbEntity
  8
0
100
AcDbLine
 10
211.606
 20
97.568
 30
0.0
 11
208.501
 21
99.0366
 31
0.0
  0
LINE
  5
188
330
3A1
100
AcDbEntity
  8
0
100
AcDbLine
 10
208.501
 20
99.0366
 30
0.0
 11
205.555
 21
100.802
 31
0.0
  0
LINE
  5
189
330
3A1
100
AcDbEntity
  8
0
100
AcDbLine
 10
205.555
 20
100.802
 30
0.0
 11
202.796
 21
102.848
 31
0.0
  0
LINE
  5
18A
330
3A1
100
AcDbEntity
  8
0
100
AcDbLine
 10
202.796
 20
102.848
 30
0.0
 11
200.251
 21
105.155
 31
0.0
  0
LINE
  5
18B
330
3A1
100
AcDbEntity
  8
0
100
AcDbLine
 10
200.251
 20
105.155
 30
0.0
 11
197.945
 21
107.7
 31
0.0
  0
LINE
  5
18C
330
3A1
100
AcDbEntity
  8
0
100
AcDbLine
 10
197.945
 20
107.7
 30
0.0
 11
195.899
 21
110.459
 31
0.0
  0
LINE
  5
18D
330
3A1
100
AcDbEntity
  8
0
100
AcDbLine
 10
195.899
 20
110.459
 30
0.0
 11
194.133
 21
113.405
 31
0.0
  0
LINE
  5
18E
330
3A1
100
AcDbEntity
  8
0
100
AcDbLine
 10
194.133
 20
113.405
 30
0.0
 11
192.664
 21
116.51
 31
0.0
  0
LINE
  5
18F
330
3A1
100
AcDbEntity
  8
0
100
AcDbLine
 10
192.664
 20
116.51
 30
0.0
 11
191.507
 21
119.744
 31
0.0
  0
LINE
  5
190
330
3A1
100
AcDbEntity
  8
0
100
AcDbLine
 10
191.507
 20
119.744
 30
0.0
 11
190.673
 21
123.076
 31
0.0
  0
LINE
  5
191
330
3A1
100
AcDbEntity
  8
0
100
AcDbLine
 10
190.673
 20
123.076
 30
0.0
 11
190.169
 21
126.473
 31
0.0
  0
LINE
  5
192
330
3A1
100
AcDbEntity
  8
0
100
AcDbLine
 10
190.169
 20
126.473
 30
0.0
 11
190.0
 21
129.904
 31
0.0
  0
LINE
  5
193
330
3A1
100
AcDbEntity
  8
0
100
AcDbLine
 10
190.0
 20
129.904
 30
0.0
 11
190.169
 21
133.334
 31
0.0
  0
LINE
  5
194
330
3A1
100
AcDbEntity
  8
0
100
AcDbLine
 10
190.169
 20
133.334
 30
0.0
 11
190.673
 21
136.732
 31
0.0
  0
LINE
  5
195
330
3A1
100
AcDbEntity
  8
0
100
AcDbLine
 10
190.673
 20
136.732
 30
0.0
 11
191.507
 21
140.064
 31
0.0
  0
LINE
  5
196
330
3A1
100
AcDbEntity
  8
0
100
AcDbLine
 10
191.507
 20
140.064
 30
0.0
 11
192.664
 21
143.298
 31
0.0
  0
LINE
  5
197
330
3A1
100
AcDbEntity
  8
0
100
AcDbLine
 10
192.664
 20
143.298
 30
0.0
 11
194.133
 21
146.403
 31
0.0
  0
LINE
  5
198
330
3A1
100
AcDbEntity
  8
0
100
AcDbLine
 10
194.133
 20
146.403
 30
0.0
 11
195.899
 21
149.349
 31
0.0
  0
LINE
  5
199
330
3A1
100
AcDbEntity
  8
0
100
AcDbLine
 10
195.899
 20
149.349
 30
0.0
 11
197.945
 21
152.108
 31
0.0
  0
LINE
  5
19A
330
3A1
100
AcDbEntity
  8
0
100
AcDbLine
 10
197.945
 20
152.108
 30
0.0
 11
200.251
 21
154.653
 31
0.0
  0
LINE
  5
19B
330
3A1
100
AcDbEntity
  8
0
100
AcDbLine
 10
200.251
 20
154.653
 30
0.0
 11
202.796
 21
156.959
 31
0.0
  0
LINE
  5
19C
330
3A1
100
AcDbEntity
  8
0
100
AcDbLine
 10
202.796
 20
156.959
 30
0.0
 11
205.555
 21
159.005
 31
0.0
  0
LINE
  5
19D
330
3A1
100
AcDbEntity
  8
0
100
AcDbLine
 10
205.555
 20
159.005
 30
0.0
 11
208.501
 21
160.771
 31
0.0
  0
LINE
  5
19E
330
3A1
100
AcDbEntity
  8
0
100
AcDbLine
 10
208.501
 20
160.771
 30
0.0
 11
211.606
 21
162.24
 31
0.0
  0
LINE
  5
19F
330
3A1
100
AcDbEntity
  8
0
100
AcDbLine
 10
211.606
 20
162.24
 30
0.0
 11
214.84
 21
163.397
 31
0.0
  0
LINE
  5
1A0
330
3A1
100
AcDbEntity
  8
0
100
AcDbLine
 10
214.84
 20
163.397
 30
0.0
 11
218.172
 21
164.231
 31
0.0
  0
LINE
  5
1A1
330
3A1
100
AcDbEntity
  8
0
100
AcDbLine
 10
218.172
 20
164.231
 30
0.0
 11
221.569
 21
164.735
 31
0.0
  0
LINE
  5
1A2
330
3A1
100
AcDbEntity
  8
0
100
AcDbLine
 10
221.569
 20
164.735
 30
0.0
 11
225.0
 21
164.904
 31
0.0
  0
LINE
  5
1A3
330
3A1
100
AcDbEntity
  8
0
100
AcDbLine
 10
225.0
 20
164.904
 30
0.0
 11
228.431
 21
164.735
 31
0.0
  0
LINE
  5
1A4
330
3A1
100
AcDbEntity
  8
0
100
AcDbLine
 10
228.431
 20
164.735
 30
0.0
 11
231.828
 21
164.231
 31
0.0
  0
LINE
  5
1A5
330
3A1
100
AcDbEntity
  8
0
100
AcDbLine
 10
231.828
 20
164.231
 30
0.0
 11
235.16
 21
163.397
 31
0.0
  0
LINE
  5
1A6
330
3A1
100
AcDbEntity
  8
0
100
AcDbLine
 10
235.16
 20
163.397
 30
0.0
 11
238.394
 21
162.24
 31
0.0
  0
LINE
  5
1A7
330
3A1
100
AcDbEntity
  8
0
100
AcDbLine
 10
238.394
 20
162.24
 30
0.0
 11
241.499
 21
160.771
 31
0.0
  0
LINE
  5
1A8
330
3A1
100
AcDbEntity
  8
0
100
AcDbLine
 10
241.499
 20
160.771
 30
0.0
 11
244.445
 21
159.005
 31
0.0
  0
LINE
  5
1A9
330
3A1
100
AcDbEntity
  8
0
100
AcDbLine
 10
244.445
 20
159.005
 30
0.0
 11
247.204
 21
156.959
 31
0.0
  0
LINE
  5
1AA
330
3A1
100
AcDbEntity
  8
0
100
AcDbLine
 10
247.204
 20
156.959
 30
0.0
 11
249.749
 21
154.653
 31
0.0
  0
LINE
  5
1AB
330
3A1
100
AcDbEntity
  8
0
100
AcDbLine
 10
249.749
 20
154.653
 30
0.0
 11
252.055
 21
152.108
 31
0.0
  0
LINE
  5
1AC
330
3A1
100
AcDbEntity
  8
0
100
AcDbLine
 10
252.055
 20
152.108
 30
0.0
 11
254.101
 21
149.349
 31
0.0
  0
LINE
  5
1AD
330
3A1
100
AcDbEntity
  8
0
100
AcDbLine
 10
254.101
 20
149.349
 30
0.0
 11
255.867
 21
146.403
 31
0.0
  0
LINE
  5
1AE
330
3A1
100
AcDbEntity
  8
0
100
AcDbLine
 10
255.867
 20
146.403
 30
0.0
 11
257.336
 21
143.298
 31
0.0
  0
LINE
  5
1AF
330
3A1
100
AcDbEntity
  8
0
100
AcDbLine
 10
257.336
 20
143.298
 30
0.0
 11
258.493
 21
140.064
 31
0.0
  0
LINE
  5
1B0
330
3A1
100
AcDbEntity
  8
0
100
AcDbLine
 10
258.493
 20
140.064
 30
0.0
 11
259.327
 21
136.732
 31
0.0
  0
LINE
  5
1B1
330
3A1
100
AcDbEntity
  8
0
100
AcDbLine
 10
259.327
 20
136.732
 30
0.0
 11
259.831
 21
133.334
 31
0.0
  0
LINE
  5
1B2
330
3A1
100
AcDbEntity
  8
0
100
AcDbLine
 10
259.831
 20
133.334
 30
0.0
 11
260.0
 21
129.904
 31
0.0
  0
LINE
  5
1B3
330
3A1
100
AcDbEntity
  8
0
100
AcDbLine
 10
260.0
 20
129.904
 30
0.0
 11
259.831
 21
126.473
 31
0.0
  0
LINE
  5
1B4
330
3A1
100
AcDbEntity
  8
0
100
AcDbLine
 10
259.831
 20
126.473
 30
0.0
 11
259.327
 21
123.076
 31
0.0
  0
LINE
  5
1B5
330
3A1
100
AcDbEntity
  8
0
100
AcDbLine
 10
259.327
 20
123.076
 30
0.0
 11
258.493
 21
119.744
 31
0.0
  0
LINE
  5
1B6
330
3A1
100
AcDbEntity
  8
0
100
AcDbLine
 10
258.493
 20
119.744
 30
0.0
 11
257.336
 21
116.51
 31
0.0
  0
LINE
  5
1B7
330
3A1
100
AcDbEntity
  8
0
100
AcDbLine
 10
257.336
 20
116.51
 30
0.0
 11
255.867
 21
113.405
 31
0.0
  0
LINE
  5
1B8
330
3A1
100
AcDbEntity
  8
0
100
AcDbLine
 10
255.867
 20
113.405
 30
0.0
 11
254.101
 21
110.459
 31
0.0
  0
LINE
  5
1B9
330
3A1
100
AcDbEntity
  8
0
100
AcDbLine
 10
254.101
 20
110.459
 30
0.0
 11
252.055
 21
107.7
 31
0.0
  0
LINE
  5
1BA
330
3A1
100
AcDbEntity
  8
0
100
AcDbLine
 10
252.055
 20
107.7
 30
0.0
 11
249.749
 21
105.155
 31
0.0
  0
LINE
  5
1BB
330
3A1
100
AcDbEntity
  8
0
100
AcDbLine
 10
249.749
 20
105.155
 30
0.0
 11
247.204
 21
102.848
 31
0.0
  0
LINE
  5
1BC
330
3A1
100
AcDbEntity
  8
0
100
AcDbLine
 10
247.204
 20
102.848
 30
0.0
 11
244.445
 21
100.802
 31
0.0
  0
LINE
  5
1BD
330
3A1
100
AcDbEntity
  8
0
100
AcDbLine
 10
244.445
 20
100.802
 30
0.0
 11
241.499
 21
99.0366
 31
0.0
  0
LINE
  5
1BE
330
3A1
100
AcDbEntity
  8
0
100
AcDbLine
 10
241.499
 20
99.0366
 30
0.0
 11
238.394
 21
97.568
 31
0.0
  0
LINE
  5
1BF
330
3A1
100
AcDbEntity
  8
0
100
AcDbLine
 10
238.394
 20
97.568
 30
0.0
 11
235.16
 21
96.4109
 31
0.0
  0
LINE
  5
1C0
330
3A1
100
AcDbEntity
  8
0
100
AcDbLine
 10
235.16
 20
96.4109
 30
0.0
 11
231.828
 21
95.5763
 31
0.0
  0
LINE
  5
1C1
330
3A1
100
AcDbEntity
  8
0
100
AcDbLine
 10
231.828
 20
95.5763
 30
0.0
 11
228.431
 21
95.0723
 31
0.0
  0
LINE
  5
1C2
330
3A1
100
AcDbEntity
  8
0
100
AcDbLine
 10
228.431
 20
95.0723
 30
0.0
 11
225.0
 21
94.9038
 31
0.0
  0
LINE
  5
1C3
330
3A1
100
AcDbEntity
  8
0
100
AcDbLine
 10
225.0
 20
94.9038
 30
0.0
 11
221.569
 21
95.0723
 31
0.0
  0
LINE
  5
1C4
330
3A1
100
AcDbEntity
  8
0
100
AcDbLine
 10
-303.431
 20
-34.8315
 30
0.0
 11
-306.828
 21
-34.3275
 31
0.0
  0
LINE
  5
1C5
330
3A1
100
AcDbEntity
  8
0
100
AcDbLine
 10
-306.828
 20
-34.3275
 30
0.0
 11
-310.16
 21
-33.4929
 31
0.0
  0
LINE
  5
1C6
330
3A1
100
AcDbEntity
  8
0
100
AcDbLine
 10
-310.16
 20
-33.4929
 30
0.0
 11
-313.394
 21
-32.3358
 31
0.0
  0
LINE
  5
1C7
330
3A1
100
AcDbEntity
  8
0
100
AcDbLine
 10
-313.394
 20
-32.3358
 30
0.0
 11
-316.499
 21
-30.8672
 31
0.0
  0
LINE
  5
1C8
330
3A1
100
AcDbEntity
  8
0
100
AcDbLine
 10
-316.499
 20
-30.8672
 30
0.0
 11
-319.445
 21
-29.1014
 31
0.0
  0
LINE
  5
1C9
330
3A1
100
AcDbEntity
  8
0
100
AcDbLine
 10
-319.445
 20
-29.1014
 30
0.0
 11
-322.204
 21
-27.0554
 31
0.0
  0
LINE
  5
1CA
330
3A1
100
AcDbEntity
  8
0
100
AcDbLine
 10
-322.204
 20
-27.0554
 30
0.0
 11
-324.749
 21
-24.7487
 31
0.0
  0
LINE
  5
1CB
330
3A1
100
AcDbEntity
  8
0
100
AcDbLine
 10
-324.749
 20
-24.7487
 30
0.0
 11
-327.055
 21
-22.2038
 31
0.0
  0
LINE
  5
1CC
330
3A1
100
AcDbEntity
  8
0
100
AcDbLine
 10
-327.055
 20
-22.2038
 30
0.0
 11
-329.101
 21
-19.4449
 31
0.0
  0
LINE
  5
1CD
330
3A1
100
AcDbEntity
  8
0
100
AcDbLine
 10
-329.101
 20
-19.4449
 30
0.0
 11
-330.867
 21
-16.4989
 31
0.0
  0
LINE
  5
1CE
330
3A1
100
AcDbEntity
  8
0
100
AcDbLine
 10
-330.867
 20
-16.4989
 30
0.0
 11
-332.336
 21
-13.3939
 31
0.0
  0
LINE
  5
1CF
330
3A1
100
AcDbEntity
  8
0
100
AcDbLine
 10
-332.336
 20
-13.3939
 30
0.0
 11
-333.493
 21
-10.16
 31
0.0
  0
LINE
  5
1D0
330
3A1
100
AcDbEntity
  8
0
100
AcDbLine
 10
-333.493
 20
-10.16
 30
0.0
 11
-334.327
 21
-6.82816
 31
0.0
  0
LINE
  5
1D1
330
3A1
100
AcDbEntity
  8
0
100
AcDbLine
 10
-334.327
 20
-6.82816
 30
0.0
 11
-334.831
 21
-3.43059
 31
0.0
  0
LINE
  5
1D2
330
3A1
100
AcDbEntity
  8
0
100
AcDbLine
 10
-334.831
 20
-3.43059
 30
0.0
 11
-335.0
 21
0.0
 31
0.0
  0
LINE
  5
1D3
330
3A1
100
AcDbEntity
  8
0
100
AcDbLine
 10
-335.0
 20
0.0
 30
0.0
 11
-334.831
 21
3.43059
 31
0.0
  0
LINE
  5
1D4
330
3A1
100
AcDbEntity
  8
0
100
AcDbLine
 10
-334.831
 20
3.43059
 30
0.0
 11
-334.327
 21
6.82816
 31
0.0
  0
LINE
  5
1D5
330
3A1
100
AcDbEntity
  8
0
100
AcDbLine
 10
-334.327
 20
6.82816
 30
0.0
 11
-333.493
 21
10.16
 31
0.0
  0
LINE
  5
1D6
330
3A1
100
AcDbEntity
  8
0
100
AcDbLine
 10
-333.493
 20
10.16
 30
0.0
 11
-332.336
 21
13.3939
 31
0.0
  0
LINE
  5
1D7
330
3A1
100
AcDbEntity
  8
0
100
AcDbLine
 10
-332.336
 20
13.3939
 30
0.0
 11
-330.867
 21
16.4989
 31
0.0
  0
LINE
  5
1D8
330
3A1
100
AcDbEntity
  8
0
100
AcDbLine
 10
-330.867
 20
16.4989
 30
0.0
 11
-329.101
 21
19.4449
 31
0.0
  0
LINE
  5
1D9
330
3A1
100
AcDbEntity
  8
0
100
AcDbLine
 10
-329.101
 20
19.4449
 30
0.0
 11
-327.055
 21
22.2038
 31
0.0
  0
LINE
  5
1DA
330
3A1
100
AcDbEntity
  8
0
100
AcDbLine
 10
-327.055
 20
22.2038
 30
0.0
 11
-324.749
 21
24.7487
 31
0.0
  0
LINE
  5
1DB
330
3A1
100
AcDbEntity
  8
0
100
AcDbLine
 10
-324.749
 20
24.7487
 30
0.0
 11
-322.204
 21
27.0554
 31
0.0
  0
LINE
  5
1DC
330
3A1
100
AcDbEntity
  8
0
100
AcDbLine
 10
-322.204
 20
27.0554
 30
0.0
 11
-319.445
 21
29.1014
 31
0.0
  0
LINE
  5
1DD
330
3A1
100
AcDbEntity
  8
0
100
AcDbLine
 10
-319.445
 20
29.1014
 30
0.0
 11
-316.499
 21
30.8672
 31
0.0
  0
LINE
  5
1DE
330
3A1
100
AcDbEntity
  8
0
100
AcDbLine
 10
-316.499
 20
30.8672
 30
0.0
 11
-313.394
 21
32.3358
 31
0.0
  0
LINE
  5
1DF
330
3A1
100
AcDbEntity
  8
0
100
AcDbLine
 10
-313.394
 20
32.3358
 30
0.0
 11
-310.16
 21
33.4929
 31
0.0
  0
LINE
  5
1E0
330
3A1
100
AcDbEntity
  8
0
100
AcDbLine
 10
-310.16
 20
33.4929
 30
0.0
 11
-306.828
 21
34.3275
 31
0.0
  0
LINE
  5
1E1
330
3A1
100
AcDbEntity
  8
0
100
AcDbLine
 10
-306.828
 20
34.3275
 30
0.0
 11
-303.431
 21
34.8315
 31
0.0
  0
LINE
  5
1E2
330
3A1
100
AcDbEntity
  8
0
100
AcDbLine
 10
-303.431
 20
34.8315
 30
0.0
 11
-300.0
 21
35.0
 31
0.0
  0
LINE
  5
1E3
330
3A1
100
AcDbEntity
  8
0
100
AcDbLine
 10
-300.0
 20
35.0
 30
0.0
 11
-296.569
 21
34.8315
 31
0.0
  0
LINE
  5
1E4
330
3A1
100
AcDbEntity
  8
0
100
AcDbLine
 10
-296.569
 20
34.8315
 30
0.0
 11
-293.172
 21
34.3275
 31
0.0
  0
LINE
  5
1E5
330
3A1
100
AcDbEntity
  8
0
100
AcDbLine
 10
-293.172
 20
34.3275
 30
0.0
 11
-289.84
 21
33.4929
 31
0.0
  0
LINE
  5
1E6
330
3A1
100
AcDbEntity
  8
0
100
AcDbLine
 10
-289.84
 20
33.4929
 30
0.0
 11
-286.606
 21
32.3358
 31
0.0
  0
LINE
  5
1E7
330
3A1
100
AcDbEntity
  8
0
100
AcDbLine
 10
-286.606
 20
32.3358
 30
0.0
 11
-283.501
 21
30.8672
 31
0.0
  0
LINE
  5
1E8
330
3A1
100
AcDbEntity
  8
0
100
AcDbLine
 10
-283.501
 20
30.8672
 30
0.0
 11
-280.555
 21
29.1014
 31
0.0
  0
LINE
  5
1E9
330
3A1
100
AcDbEntity
  8
0
100
AcDbLine
 10
-280.555
 20
29.1014
 30
0.0
 11
-277.796
 21
27.0554
 31
0.0
  0
LINE
  5
1EA
330
3A1
100
AcDbEntity
  8
0
100
AcDbLine
 10
-277.796
 20
27.0554
 30
0.0
 11
-275.251
 21
24.7487
 31
0.0
  0
LINE
  5
1EB
330
3A1
100
AcDbEntity
  8
0
100
AcDbLine
 10
-275.251
 20
24.7487
 30
0.0
 11
-272.945
 21
22.2038
 31
0.0
  0
LINE
  5
1EC
330
3A1
100
AcDbEntity
  8
0
100
AcDbLine
 10
-272.945
 20
22.2038
 30
0.0
 11
-270.899
 21
19.4449
 31
0.0
  0
LINE
  5
1ED
330
3A1
100
AcDbEntity
  8
0
100
AcDbLine
 10
-270.899
 20
19.4449
 30
0.0
 11
-269.133
 21
16.4989
 31
0.0
  0
LINE
  5
1EE
330
3A1
100
AcDbEntity
  8
0
100
AcDbLine
 10
-269.133
 20
16.4989
 30
0.0
 11
-267.664
 21
13.3939
 31
0.0
  0
LINE
  5
1EF
330
3A1
100
AcDbEntity
  8
0
100
AcDbLine
 10
-267.664
 20
13.3939
 30
0.0
 11
-266.507
 21
10.16
 31
0.0
  0
LINE
  5
1F0
330
3A1
100
AcDbEntity
  8
0
100
AcDbLine
 10
-266.507
 20
10.16
 30
0.0
 11
-265.673
 21
6.82816
 31
0.0
  0
LINE
  5
1F1
330
3A1
100
AcDbEntity
  8
0
100
AcDbLine
 10
-265.673
 20
6.82816
 30
0.0
 11
-265.169
 21
3.43059
 31
0.0
  0
LINE
  5
1F2
330
3A1
100
AcDbEntity
  8
0
100
AcDbLine
 10
-265.169
 20
3.43059
 30
0.0
 11
-265.0
 21
0.0
 31
0.0
  0
LINE
  5
1F3
330
3A1
100
AcDbEntity
  8
0
100
AcDbLine
 10
-265.0
 20
0.0
 30
0.0
 11
-265.169
 21
-3.43059
 31
0.0
  0
LINE
  5
1F4
330
3A1
100
AcDbEntity
  8
0
100
AcDbLine
 10
-265.169
 20
-3.43059
 30
0.0
 11
-265.673
 21
-6.82816
 31
0.0
  0
LINE
  5
1F5
330
3A1
100
AcDbEntity
  8
0
100
AcDbLine
 10
-265.673
 20
-6.82816
 30
0.0
 11
-266.507
 21
-10.16
 31
0.0
  0
LINE
  5
1F6
330
3A1
100
AcDbEntity
  8
0
100
AcDbLine
 10
-266.507
 20
-10.16
 30
0.0
 11
-267.664
 21
-13.3939
 31
0.0
  0
LINE
  5
1F7
330
3A1
100
AcDbEntity
  8
0
100
AcDbLine
 10
-267.664
 20
-13.3939
 30
0.0
 11
-269.133
 21
-16.4989
 31
0.0
  0
LINE
  5
1F8
330
3A1
100
AcDbEntity
  8
0
100
AcDbLine
 10
-269.133
 20
-16.4989
 30
0.0
 11
-270.899
 21
-19.4449
 31
0.0
  0
LINE
  5
1F9
330
3A1
100
AcDbEntity
  8
0
100
AcDbLine
 10
-270.899
 20
-19.4449
 30
0.0
 11
-272.945
 21
-22.2038
 31
0.0
  0
LINE
  5
1FA
330
3A1
100
AcDbEntity
  8
0
100
AcDbLine
 10
-272.945
 20
-22.2038
 30
0.0
 11
-275.251
 21
-24.7487
 31
0.0
  0
LINE
  5
1FB
330
3A1
100
AcDbEntity
  8
0
100
AcDbLine
 10
-275.251
 20
-24.7487
 30
0.0
 11
-277.796
 21
-27.0554
 31
0.0
  0
LINE
  5
1FC
330
3A1
100
AcDbEntity
  8
0
100
AcDbLine
 10
-277.796
 20
-27.0554
 30
0.0
 11
-280.555
 21
-29.1014
 31
0.0
  0
LINE
  5
1FD
330
3A1
100
AcDbEntity
  8
0
100
AcDbLine
 10
-280.555
 20
-29.1014
 30
0.0
 11
-283.501
 21
-30.8672
 31
0.0
  0
LINE
  5
1FE
330
3A1
100
AcDbEntity
  8
0
100
AcDbLine
 10
-283.501
 20
-30.8672
 30
0.0
 11
-286.606
 21
-32.3358
 31
0.0
  0
LINE
  5
1FF
330
3A1
100
AcDbEntity
  8
0
100
AcDbLine
 10
-286.606
 20
-32.3358
 30
0.0
 11
-289.84
 21
-33.4929
 31
0.0
  0
LINE
  5
200
330
3A1
100
AcDbEntity
  8
0
100
AcDbLine
 10
-289.84
 20
-33.4929
 30
0.0
 11
-293.172
 21
-34.3275
 31
0.0
  0
LINE
  5
201
330
3A1
100
AcDbEntity
  8
0
100
AcDbLine
 10
-293.172
 20
-34.3275
 30
0.0
 11
-296.569
 21
-34.8315
 31
0.0
  0
LINE
  5
202
330
3A1
100
AcDbEntity
  8
0
100
AcDbLine
 10
-296.569
 20
-34.8315
 30
0.0
 11
-300.0
 21
-35.0
 31
0.0
  0
LINE
  5
203
330
3A1
100
AcDbEntity
  8
0
100
AcDbLine
 10
-300.0
 20
-35.0
 30
0.0
 11
-303.431
 21
-34.8315
 31
0.0
  0
LINE
  5
204
330
3A1
100
AcDbEntity
  8
0
100
AcDbLine
 10
296.569
 20
-34.8315
 30
0.0
 11
293.172
 21
-34.3275
 31
0.0
  0
LINE
  5
205
330
3A1
100
AcDbEntity
  8
0
100
AcDbLine
 10
293.172
 20
-34.3275
 30
0.0
 11
289.84
 21
-33.4929
 31
0.0
  0
LINE
  5
206
330
3A1
100
AcDbEntity
  8
0
100
AcDbLine
 10
289.84
 20
-33.4929
 30
0.0
 11
286.606
 21
-32.3358
 31
0.0
  0
LINE
  5
207
330
3A1
100
AcDbEntity
  8
0
100
AcDbLine
 10
286.606
 20
-32.3358
 30
0.0
 11
283.501
 21
-30.8672
 31
0.0
  0
LINE
  5
208
330
3A1
100
AcDbEntity
  8
0
100
AcDbLine
 10
283.501
 20
-30.8672
 30
0.0
 11
280.555
 21
-29.1014
 31
0.0
  0
LINE
  5
209
330
3A1
100
AcDbEntity
  8
0
100
AcDbLine
 10
280.555
 20
-29.1014
 30
0.0
 11
277.796
 21
-27.0554
 31
0.0
  0
LINE
  5
20A
330
3A1
100
AcDbEntity
  8
0
100
AcDbLine
 10
277.796
 20
-27.0554
 30
0.0
 11
275.251
 21
-24.7487
 31
0.0
  0
LINE
  5
20B
330
3A1
100
AcDbEntity
  8
0
100
AcDbLine
 10
275.251
 20
-24.7487
 30
0.0
 11
272.945
 21
-22.2038
 31
0.0
  0
LINE
  5
20C
330
3A1
100
AcDbEntity
  8
0
100
AcDbLine
 10
272.945
 20
-22.2038
 30
0.0
 11
270.899
 21
-19.4449
 31
0.0
  0
LINE
  5
20D
330
3A1
100
AcDbEntity
  8
0
100
AcDbLine
 10
270.899
 20
-19.4449
 30
0.0
 11
269.133
 21
-16.4989
 31
0.0
  0
LINE
  5
20E
330
3A1
100
AcDbEntity
  8
0
100
AcDbLine
 10
269.133
 20
-16.4989
 30
0.0
 11
267.664
 21
-13.3939
 31
0.0
  0
LINE
  5
20F
330
3A1
100
AcDbEntity
  8
0
100
AcDbLine
 10
267.664
 20
-13.3939
 30
0.0
 11
266.507
 21
-10.16
 31
0.0
  0
LINE
  5
210
330
3A1
100
AcDbEntity
  8
0
100
AcDbLine
 10
266.507
 20
-10.16
 30
0.0
 11
265.673
 21
-6.82816
 31
0.0
  0
LINE
  5
211
330
3A1
100
AcDbEntity
  8
0
100
AcDbLine
 10
265.673
 20
-6.82816
 30
0.0
 11
265.169
 21
-3.43059
 31
0.0
  0
LINE
  5
212
330
3A1
100
AcDbEntity
  8
0
100
AcDbLine
 10
265.169
 20
-3.43059
 30
0.0
 11
265.0
 21
0.0
 31
0.0
  0
LINE
  5
213
330
3A1
100
AcDbEntity
  8
0
100
AcDbLine
 10
265.0
 20
0.0
 30
0.0
 11
265.169
 21
3.43059
 31
0.0
  0
LINE
  5
214
330
3A1
100
AcDbEntity
  8
0
100
AcDbLine
 10
265.169
 20
3.43059
 30
0.0
 11
265.673
 21
6.82816
 31
0.0
  0
LINE
  5
215
330
3A1
100
AcDbEntity
  8
0
100
AcDbLine
 10
265.673
 20
6.82816
 30
0.0
 11
266.507
 21
10.16
 31
0.0
  0
LINE
  5
216
330
3A1
100
AcDbEntity
  8
0
100
AcDbLine
 10
266.507
 20
10.16
 30
0.0
 11
267.664
 21
13.3939
 31
0.0
  0
LINE
  5
217
330
3A1
100
AcDbEntity
  8
0
100
AcDbLine
 10
267.664
 20
13.3939
 30
0.0
 11
269.133
 21
16.4989
 31
0.0
  0
LINE
  5
218
330
3A1
100
AcDbEntity
  8
0
100
AcDbLine
 10
269.133
 20
16.4989
 30
0.0
 11
270.899
 21
19.4449
 31
0.0
  0
LINE
  5
219
330
3A1
100
AcDbEntity
  8
0
100
AcDbLine
 10
270.899
 20
19.4449
 30
0.0
 11
272.945
 21
22.2038
 31
0.0
  0
LINE
  5
21A
330
3A1
100
AcDbEntity
  8
0
100
AcDbLine
 10
272.945
 20
22.2038
 30
0.0
 11
275.251
 21
24.7487
 31
0.0
  0
LINE
  5
21B
330
3A1
100
AcDbEntity
  8
0
100
AcDbLine
 10
275.251
 20
24.7487
 30
0.0
 11
277.796
 21
27.0554
 31
0.0
  0
LINE
  5
21C
330
3A1
100
AcDbEntity
  8
0
100
AcDbLine
 10
277.796
 20
27.0554
 30
0.0
 11
280.555
 21
29.1014
 31
0.0
  0
LINE
  5
21D
330
3A1
100
AcDbEntity
  8
0
100
AcDbLine
 10
280.555
 20
29.1014
 30
0.0
 11
283.501
 21
30.8672
 31
0.0
  0
LINE
  5
21E
330
3A1
100
AcDbEntity
  8
0
100
AcDbLine
 10
283.501
 20
30.8672
 30
0.0
 11
286.606
 21
32.3358
 31
0.0
  0
LINE
  5
21F
330
3A1
100
AcDbEntity
  8
0
100
AcDbLine
 10
286.606
 20
32.3358
 30
0.0
 11
289.84
 21
33.4929
 31
0.0
  0
LINE
  5
220
330
3A1
100
AcDbEntity
  8
0
100
AcDbLine
 10
289.84
 20
33.4929
 30
0.0
 11
293.172
 21
34.3275
 31
0.0
  0
LINE
  5
221
330
3A1
100
AcDbEntity
  8
0
100
AcDbLine
 10
293.172
 20
34.3275
 30
0.0
 11
296.569
 21
34.8315
 31
0.0
  0
LINE
  5
222
330
3A1
100
AcDbEntity
  8
0
100
AcDbLine
 10
296.569
 20
34.8315
 30
0.0
 11
300.0
 21
35.0
 31
0.0
  0
LINE
  5
223
330
3A1
100
AcDbEntity
  8
0
100
AcDbLine
 10
300.0
 20
35.0
 30
0.0
 11
303.431
 21
34.8315
 31
0.0
  0
LINE
  5
224
330
3A1
100
AcDbEntity
  8
0
100
AcDbLine
 10
303.431
 20
34.8315
 30
0.0
 11
306.828
 21
34.3275
 31
0.0
  0
LINE
  5
225
330
3A1
100
AcDbEntity
  8
0
100
AcDbLine
 10
306.828
 20
34.3275
 30
0.0
 11
310.16
 21
33.4929
 31
0.0
  0
LINE
  5
226
330
3A1
100
AcDbEntity
  8
0
100
AcDbLine
 10
310.16
 20
33.4929
 30
0.0
 11
313.394
 21
32.3358
 31
0.0
  0
LINE
  5
227
330
3A1
100
AcDbEntity
  8
0
100
AcDbLine
 10
313.394
 20
32.3358
 30
0.0
 11
316.499
 21
30.8672
 31
0.0
  0
LINE
  5
228
330
3A1
100
AcDbEntity
  8
0
100
AcDbLine
 10
316.499
 20
30.8672
 30
0.0
 11
319.445
 21
29.1014
 31
0.0
  0
LINE
  5
229
330
3A1
100
AcDbEntity
  8
0
100
AcDbLine
 10
319.445
 20
29.1014
 30
0.0
 11
322.204
 21
27.0554
 31
0.0
  0
LINE
  5
22A
330
3A1
100
AcDbEntity
  8
0
100
AcDbLine
 10
322.204
 20
27.0554
 30
0.0
 11
324.749
 21
24.7487
 31
0.0
  0
LINE
  5
22B
330
3A1
100
AcDbEntity
  8
0
100
AcDbLine
 10
324.749
 20
24.7487
 30
0.0
 11
327.055
 21
22.2038
 31
0.0
  0
LINE
  5
22C
330
3A1
100
AcDbEntity
  8
0
100
AcDbLine
 10
327.055
 20
22.2038
 30
0.0
 11
329.101
 21
19.4449
 31
0.0
  0
LINE
  5
22D
330
3A1
100
AcDbEntity
  8
0
100
AcDbLine
 10
329.101
 20
19.4449
 30
0.0
 11
330.867
 21
16.4989
 31
0.0
  0
LINE
  5
22E
330
3A1
100
AcDbEntity
  8
0
100
AcDbLine
 10
330.867
 20
16.4989
 30
0.0
 11
332.336
 21
13.3939
 31
0.0
  0
LINE
  5
22F
330
3A1
100
AcDbEntity
  8
0
100
AcDbLine
 10
332.336
 20
13.3939
 30
0.0
 11
333.493
 21
10.16
 31
0.0
  0
LINE
  5
230
330
3A1
100
AcDbEntity
  8
0
100
AcDbLine
 10
333.493
 20
10.16
 30
0.0
 11
334.327
 21
6.82816
 31
0.0
  0
LINE
  5
231
330
3A1
100
AcDbEntity
  8
0
100
AcDbLine
 10
334.327
 20
6.82816
 30
0.0
 11
334.831
 21
3.43059
 31
0.0
  0
LINE
  5
232
330
3A1
100
AcDbEntity
  8
0
100
AcDbLine
 10
334.831
 20
3.43059
 30
0.0
 11
335.0
 21
0.0
 31
0.0
  0
LINE
  5
233
330
3A1
100
AcDbEntity
  8
0
100
AcDbLine
 10
335.0
 20
0.0
 30
0.0
 11
334.831
 21
-3.43059
 31
0.0
  0
LINE
  5
234
330
3A1
100
AcDbEntity
  8
0
100
AcDbLine
 10
334.831
 20
-3.43059
 30
0.0
 11
334.327
 21
-6.82816
 31
0.0
  0
LINE
  5
235
330
3A1
100
AcDbEntity
  8
0
100
AcDbLine
 10
334.327
 20
-6.82816
 30
0.0
 11
333.493
 21
-10.16
 31
0.0
  0
LINE
  5
236
330
3A1
100
AcDbEntity
  8
0
100
AcDbLine
 10
333.493
 20
-10.16
 30
0.0
 11
332.336
 21
-13.3939
 31
0.0
  0
LINE
  5
237
330
3A1
100
AcDbEntity
  8
0
100
AcDbLine
 10
332.336
 20
-13.3939
 30
0.0
 11
330.867
 21
-16.4989
 31
0.0
  0
LINE
  5
238
330
3A1
100
AcDbEntity
  8
0
100
AcDbLine
 10
330.867
 20
-16.4989
 30
0.0
 11
329.101
 21
-19.4449
 31
0.0
  0
LINE
  5
239
330
3A1
100
AcDbEntity
  8
0
100
AcDbLine
 10
329.101
 20
-19.4449
 30
0.0
 11
327.055
 21
-22.2038
 31
0.0
  0
LINE
  5
23A
330
3A1
100
AcDbEntity
  8
0
100
AcDbLine
 10
327.055
 20
-22.2038
 30
0.0
 11
324.749
 21
-24.7487
 31
0.0
  0
LINE
  5
23B
330
3A1
100
AcDbEntity
  8
0
100
AcDbLine
 10
324.749
 20
-24.7487
 30
0.0
 11
322.204
 21
-27.0554
 31
0.0
  0
LINE
  5
23C
330
3A1
100
AcDbEntity
  8
0
100
AcDbLine
 10
322.204
 20
-27.0554
 30
0.0
 11
319.445
 21
-29.1014
 31
0.0
  0
LINE
  5
23D
330
3A1
100
AcDbEntity
  8
0
100
AcDbLine
 10
319.445
 20
-29.1014
 30
0.0
 11
316.499
 21
-30.8672
 31
0.0
  0
LINE
  5
23E
330
3A1
100
AcDbEntity
  8
0
100
AcDbLine
 10
316.499
 20
-30.8672
 30
0.0
 11
313.394
 21
-32.3358
 31
0.0
  0
LINE
  5
23F
330
3A1
100
AcDbEntity
  8
0
100
AcDbLine
 10
313.394
 20
-32.3358
 30
0.0
 11
310.16
 21
-33.4929
 31
0.0
  0
LINE
  5
240
330
3A1
100
AcDbEntity
  8
0
100
AcDbLine
 10
310.16
 20
-33.4929
 30
0.0
 11
306.828
 21
-34.3275
 31
0.0
  0
LINE
  5
241
330
3A1
100
AcDbEntity
  8
0
100
AcDbLine
 10
306.828
 20
-34.3275
 30
0.0
 11
303.431
 21
-34.8315
 31
0.0
  0
LINE
  5
242
330
3A1
100
AcDbEntity
  8
0
100
AcDbLine
 10
303.431
 20
-34.8315
 30
0.0
 11
300.0
 21
-35.0
 31
0.0
  0
LINE
  5
243
330
3A1
100
AcDbEntity
  8
0
100
AcDbLine
 10
300.0
 20
-35.0
 30
0.0
 11
296.569
 21
-34.8315
 31
0.0
  0
LINE
  5
244
330
3A1
100
AcDbEntity
  8
0
100
AcDbLine
 10
-228.431
 20
-164.735
 30
0.0
 11
-231.828
 21
-164.231
 31
0.0
  0
LINE
  5
245
330
3A1
100
AcDbEntity
  8
0
100
AcDbLine
 10
-231.828
 20
-164.231
 30
0.0
 11
-235.16
 21
-163.397
 31
0.0
  0
LINE
  5
246
330
3A1
100
AcDbEntity
  8
0
100
AcDbLine
 10
-235.16
 20
-163.397
 30
0.0
 11
-238.394
 21
-162.24
 31
0.0
  0
LINE
  5
247
330
3A1
100
AcDbEntity
  8
0
100
AcDbLine
 10
-238.394
 20
-162.24
 30
0.0
 11
-241.499
 21
-160.771
 31
0.0
  0
LINE
  5
248
330
3A1
100
AcDbEntity
  8
0
100
AcDbLine
 10
-241.499
 20
-160.771
 30
0.0
 11
-244.445
 21
-159.005
 31
0.0
  0
LINE
  5
249
330
3A1
100
AcDbEntity
  8
0
100
AcDbLine
 10
-244.445
 20
-159.005
 30
0.0
 11
-247.204
 21
-156.959
 31
0.0
  0
LINE
  5
24A
330
3A1
100
AcDbEntity
  8
0
100
AcDbLine
 10
-247.204
 20
-156.959
 30
0.0
 11
-249.749
 21
-154.653
 31
0.0
  0
LINE
  5
24B
330
3A1
100
AcDbEntity
  8
0
100
AcDbLine
 10
-249.749
 20
-154.653
 30
0.0
 11
-252.055
 21
-152.108
 31
0.0
  0
LINE
  5
24C
330
3A1
100
AcDbEntity
  8
0
100
AcDbLine
 10
-252.055
 20
-152.108
 30
0.0
 11
-254.101
 21
-149.349
 31
0.0
  0
LINE
  5
24D
330
3A1
100
AcDbEntity
  8
0
100
AcDbLine
 10
-254.101
 20
-149.349
 30
0.0
 11
-255.867
 21
-146.403
 31
0.0
  0
LINE
  5
24E
330
3A1
100
AcDbEntity
  8
0
100
AcDbLine
 10
-255.867
 20
-146.403
 30
0.0
 11
-257.336
 21
-143.298
 31
0.0
  0
LINE
  5
24F
330
3A1
100
AcDbEntity
  8
0
100
AcDbLine
 10
-257.336
 20
-143.298
 30
0.0
 11
-258.493
 21
-140.064
 31
0.0
  0
LINE
  5
250
330
3A1
100
AcDbEntity
  8
0
100
AcDbLine
 10
-258.493
 20
-140.064
 30
0.0
 11
-259.327
 21
-136.732
 31
0.0
  0
LINE
  5
251
330
3A1
100
AcDbEntity
  8
0
100
AcDbLine
 10
-259.327
 20
-136.732
 30
0.0
 11
-259.831
 21
-133.334
 31
0.0
  0
LINE
  5
252
330
3A1
100
AcDbEntity
  8
0
100
AcDbLine
 10
-259.831
 20
-133.334
 30
0.0
 11
-260.0
 21
-129.904
 31
0.0
  0
LINE
  5
253
330
3A1
100
AcDbEntity
  8
0
100
AcDbLine
 10
-260.0
 20
-129.904
 30
0.0
 11
-259.831
 21
-126.473
 31
0.0
  0
LINE
  5
254
330
3A1
100
AcDbEntity
  8
0
100
AcDbLine
 10
-259.831
 20
-126.473
 30
0.0
 11
-259.327
 21
-123.076
 31
0.0
  0
LINE
  5
255
330
3A1
100
AcDbEntity
  8
0
100
AcDbLine
 10
-259.327
 20
-123.076
 30
0.0
 11
-258.493
 21
-119.744
 31
0.0
  0
LINE
  5
256
330
3A1
100
AcDbEntity
  8
0
100
AcDbLine
 10
-258.493
 20
-119.744
 30
0.0
 11
-257.336
 21
-116.51
 31
0.0
  0
LINE
  5
257
330
3A1
100
AcDbEntity
  8
0
100
AcDbLine
 10
-257.336
 20
-116.51
 30
0.0
 11
-255.867
 21
-113.405
 31
0.0
  0
LINE
  5
258
330
3A1
100
AcDbEntity
  8
0
100
AcDbLine
 10
-255.867
 20
-113.405
 30
0.0
 11
-254.101
 21
-110.459
 31
0.0
  0
LINE
  5
259
330
3A1
100
AcDbEntity
  8
0
100
AcDbLine
 10
-254.101
 20
-110.459
 30
0.0
 11
-252.055
 21
-107.7
 31
0.0
  0
LINE
  5
25A
330
3A1
100
AcDbEntity
  8
0
100
AcDbLine
 10
-252.055
 20
-107.7
 30
0.0
 11
-249.749
 21
-105.155
 31
0.0
  0
LINE
  5
25B
330
3A1
100
AcDbEntity
  8
0
100
AcDbLine
 10
-249.749
 20
-105.155
 30
0.0
 11
-247.204
 21
-102.848
 31
0.0
  0
LINE
  5
25C
330
3A1
100
AcDbEntity
  8
0
100
AcDbLine
 10
-247.204
 20
-102.848
 30
0.0
 11
-244.445
 21
-100.802
 31
0.0
  0
LINE
  5
25D
330
3A1
100
AcDbEntity
  8
0
100
AcDbLine
 10
-244.445
 20
-100.802
 30
0.0
 11
-241.499
 21
-99.0366
 31
0.0
  0
LINE
  5
25E
330
3A1
100
AcDbEntity
  8
0
100
AcDbLine
 10
-241.499
 20
-99.0366
 30
0.0
 11
-238.394
 21
-97.568
 31
0.0
  0
LINE
  5
25F
330
3A1
100
AcDbEntity
  8
0
100
AcDbLine
 10
-238.394
 20
-97.568
 30
0.0
 11
-235.16
 21
-96.4109
 31
0.0
  0
LINE
  5
260
330
3A1
100
AcDbEntity
  8
0
100
AcDbLine
 10
-235.16
 20
-96.4109
 30
0.0
 11
-231.828
 21
-95.5763
 31
0.0
  0
LINE
  5
261
330
3A1
100
AcDbEntity
  8
0
100
AcDbLine
 10
-231.828
 20
-95.5763
 30
0.0
 11
-228.431
 21
-95.0723
 31
0.0
  0
LINE
  5
262
330
3A1
100
AcDbEntity
  8
0
100
AcDbLine
 10
-228.431
 20
-95.0723
 30
0.0
 11
-225.0
 21
-94.9038
 31
0.0
  0
LINE
  5
263
330
3A1
100
AcDbEntity
  8
0
100
AcDbLine
 10
-225.0
 20
-94.9038
 30
0.0
 11
-221.569
 21
-95.0723
 31
0.0
  0
LINE
  5
264
330
3A1
100
AcDbEntity
  8
0
100
AcDbLine
 10
-221.569
 20
-95.0723
 30
0.0
 11
-218.172
 21
-95.5763
 31
0.0
  0
LINE
  5
265
330
3A1
100
AcDbEntity
  8
0
100
AcDbLine
 10
-218.172
 20
-95.5763
 30
0.0
 11
-214.84
 21
-96.4109
 31
0.0
  0
LINE
  5
266
330
3A1
100
AcDbEntity
  8
0
100
AcDbLine
 10
-214.84
 20
-96.4109
 30
0.0
 11
-211.606
 21
-97.568
 31
0.0
  0
LINE
  5
267
330
3A1
100
AcDbEntity
  8
0
100
AcDbLine
 10
-211.606
 20
-97.568
 30
0.0
 11
-208.501
 21
-99.0366
 31
0.0
  0
LINE
  5
268
330
3A1
100
AcDbEntity
  8
0
100
AcDbLine
 10
-208.501
 20
-99.0366
 30
0.0
 11
-205.555
 21
-100.802
 31
0.0
  0
LINE
  5
269
330
3A1
100
AcDbEntity
  8
0
100
AcDbLine
 10
-205.555
 20
-100.802
 30
0.0
 11
-202.796
 21
-102.848
 31
0.0
  0
LINE
  5
26A
330
3A1
100
AcDbEntity
  8
0
100
AcDbLine
 10
-202.796
 20
-102.848
 30
0.0
 11
-200.251
 21
-105.155
 31
0.0
  0
LINE
  5
26B
330
3A1
100
AcDbEntity
  8
0
100
AcDbLine
 10
-200.251
 20
-105.155
 30
0.0
 11
-197.945
 21
-107.7
 31
0.0
  0
LINE
  5
26C
330
3A1
100
AcDbEntity
  8
0
100
AcDbLine
 10
-197.945
 20
-107.7
 30
0.0
 11
-195.899
 21
-110.459
 31
0.0
  0
LINE
  5
26D
330
3A1
100
AcDbEntity
  8
0
100
AcDbLine
 10
-195.899
 20
-110.459
 30
0.0
 11
-194.133
 21
-113.405
 31
0.0
  0
LINE
  5
26E
330
3A1
100
AcDbEntity
  8
0
100
AcDbLine
 10
-194.133
 20
-113.405
 30
0.0
 11
-192.664
 21
-116.51
 31
0.0
  0
LINE
  5
26F
330
3A1
100
AcDbEntity
  8
0
100
AcDbLine
 10
-192.664
 20
-116.51
 30
0.0
 11
-191.507
 21
-119.744
 31
0.0
  0
LINE
  5
270
330
3A1
100
AcDbEntity
  8
0
100
AcDbLine
 10
-191.507
 20
-119.744
 30
0.0
 11
-190.673
 21
-123.076
 31
0.0
  0
LINE
  5
271
330
3A1
100
AcDbEntity
  8
0
100
AcDbLine
 10
-190.673
 20
-123.076
 30
0.0
 11
-190.169
 21
-126.473
 31
0.0
  0
LINE
  5
272
330
3A1
100
AcDbEntity
  8
0
100
AcDbLine
 10
-190.169
 20
-126.473
 30
0.0
 11
-190.0
 21
-129.904
 31
0.0
  0
LINE
  5
273
330
3A1
100
AcDbEntity
  8
0
100
AcDbLine
 10
-190.0
 20
-129.904
 30
0.0
 11
-190.169
 21
-133.334
 31
0.0
  0
LINE
  5
274
330
3A1
100
AcDbEntity
  8
0
100
AcDbLine
 10
-190.169
 20
-133.334
 30
0.0
 11
-190.673
 21
-136.732
 31
0.0
  0
LINE
  5
275
330
3A1
100
AcDbEntity
  8
0
100
AcDbLine
 10
-190.673
 20
-136.732
 30
0.0
 11
-191.507
 21
-140.064
 31
0.0
  0
LINE
  5
276
330
3A1
100
AcDbEntity
  8
0
100
AcDbLine
 10
-191.507
 20
-140.064
 30
0.0
 11
-192.664
 21
-143.298
 31
0.0
  0
LINE
  5
277
330
3A1
100
AcDbEntity
  8
0
100
AcDbLine
 10
-192.664
 20
-143.298
 30
0.0
 11
-194.133
 21
-146.403
 31
0.0
  0
LINE
  5
278
330
3A1
100
AcDbEntity
  8
0
100
AcDbLine
 10
-194.133
 20
-146.403
 30
0.0
 11
-195.899
 21
-149.349
 31
0.0
  0
LINE
  5
279
330
3A1
100
AcDbEntity
  8
0
100
AcDbLine
 10
-195.899
 20
-149.349
 30
0.0
 11
-197.945
 21
-152.108
 31
0.0
  0
LINE
  5
27A
330
3A1
100
AcDbEntity
  8
0
100
AcDbLine
 10
-197.945
 20
-152.108
 30
0.0
 11
-200.251
 21
-154.653
 31
0.0
  0
LINE
  5
27B
330
3A1
100
AcDbEntity
  8
0
100
AcDbLine
 10
-200.251
 20
-154.653
 30
0.0
 11
-202.796
 21
-156.959
 31
0.0
  0
LINE
  5
27C
330
3A1
100
AcDbEntity
  8
0
100
AcDbLine
 10
-202.796
 20
-156.959
 30
0.0
 11
-205.555
 21
-159.005
 31
0.0
  0
LINE
  5
27D
330
3A1
100
AcDbEntity
  8
0
100
AcDbLine
 10
-205.555
 20
-159.005
 30
0.0
 11
-208.501
 21
-160.771
 31
0.0
  0
LINE
  5
27E
330
3A1
100
AcDbEntity
  8
0
100
AcDbLine
 10
-208.501
 20
-160.771
 30
0.0
 11
-211.606
 21
-162.24
 31
0.0
  0
LINE
  5
27F
330
3A1
100
AcDbEntity
  8
0
100
AcDbLine
 10
-211.606
 20
-162.24
 30
0.0
 11
-214.84
 21
-163.397
 31
0.0
  0
LINE
  5
280
330
3A1
100
AcDbEntity
  8
0
100
AcDbLine
 10
-214.84
 20
-163.397
 30
0.0
 11
-218.172
 21
-164.231
 31
0.0
  0
LINE
  5
281
330
3A1
100
AcDbEntity
  8
0
100
AcDbLine
 10
-218.172
 20
-164.231
 30
0.0
 11
-221.569
 21
-164.735
 31
0.0
  0
LINE
  5
282
330
3A1
100
AcDbEntity
  8
0
100
AcDbLine
 10
-221.569
 20
-164.735
 30
0.0
 11
-225.0
 21
-164.904
 31
0.0
  0
LINE
  5
283
330
3A1
100
AcDbEntity
  8
0
100
AcDbLine
 10
-225.0
 20
-164.904
 30
0.0
 11
-228.431
 21
-164.735
 31
0.0
  0
LINE
  5
284
330
3A1
100
AcDbEntity
  8
0
100
AcDbLine
 10
221.569
 20
-164.735
 30
0.0
 11
218.172
 21
-164.231
 31
0.0
  0
LINE
  5
285
330
3A1
100
AcDbEntity
  8
0
100
AcDbLine
 10
218.172
 20
-164.231
 30
0.0
 11
214.84
 21
-163.397
 31
0.0
  0
LINE
  5
286
330
3A1
100
AcDbEntity
  8
0
100
AcDbLine
 10
214.84
 20
-163.397
 30
0.0
 11
211.606
 21
-162.24
 31
0.0
  0
LINE
  5
287
330
3A1
100
AcDbEntity
  8
0
100
AcDbLine
 10
211.606
 20
-162.24
 30
0.0
 11
208.501
 21
-160.771
 31
0.0
  0
LINE
  5
288
330
3A1
100
AcDbEntity
  8
0
100
AcDbLine
 10
208.501
 20
-160.771
 30
0.0
 11
205.555
 21
-159.005
 31
0.0
  0
LINE
  5
289
330
3A1
100
AcDbEntity
  8
0
100
AcDbLine
 10
205.555
 20
-159.005
 30
0.0
 11
202.796
 21
-156.959
 31
0.0
  0
LINE
  5
28A
330
3A1
100
AcDbEntity
  8
0
100
AcDbLine
 10
202.796
 20
-156.959
 30
0.0
 11
200.251
 21
-154.653
 31
0.0
  0
LINE
  5
28B
330
3A1
100
AcDbEntity
  8
0
100
AcDbLine
 10
200.251
 20
-154.653
 30
0.0
 11
197.945
 21
-152.108
 31
0.0
  0
LINE
  5
28C
330
3A1
100
AcDbEntity
  8
0
100
AcDbLine
 10
197.945
 20
-152.108
 30
0.0
 11
195.899
 21
-149.349
 31
0.0
  0
LINE
  5
28D
330
3A1
100
AcDbEntity
  8
0
100
AcDbLine
 10
195.899
 20
-149.349
 30
0.0
 11
194.133
 21
-146.403
 31
0.0
  0
LINE
  5
28E
330
3A1
100
AcDbEntity
  8
0
100
AcDbLine
 10
194.133
 20
-146.403
 30
0.0
 11
192.664
 21
-143.298
 31
0.0
  0
LINE
  5
28F
330
3A1
100
AcDbEntity
  8
0
100
AcDbLine
 10
192.664
 20
-143.298
 30
0.0
 11
191.507
 21
-140.064
 31
0.0
  0
LINE
  5
290
330
3A1
100
AcDbEntity
  8
0
100
AcDbLine
 10
191.507
 20
-140.064
 30
0.0
 11
190.673
 21
-136.732
 31
0.0
  0
LINE
  5
291
330
3A1
100
AcDbEntity
  8
0
100
AcDbLine
 10
190.673
 20
-136.732
 30
0.0
 11
190.169
 21
-133.334
 31
0.0
  0
LINE
  5
292
330
3A1
100
AcDbEntity
  8
0
100
AcDbLine
 10
190.169
 20
-133.334
 30
0.0
 11
190.0
 21
-129.904
 31
0.0
  0
LINE
  5
293
330
3A1
100
AcDbEntity
  8
0
100
AcDbLine
 10
190.0
 20
-129.904
 30
0.0
 11
190.169
 21
-126.473
 31
0.0
  0
LINE
  5
294
330
3A1
100
AcDbEntity
  8
0
100
AcDbLine
 10
190.169
 20
-126.473
 30
0.0
 11
190.673
 21
-123.076
 31
0.0
  0
LINE
  5
295
330
3A1
100
AcDbEntity
  8
0
100
AcDbLine
 10
190.673
 20
-123.076
 30
0.0
 11
191.507
 21
-119.744
 31
0.0
  0
LINE
  5
296
330
3A1
100
AcDbEntity
  8
0
100
AcDbLine
 10
191.507
 20
-119.744
 30
0.0
 11
192.664
 21
-116.51
 31
0.0
  0
LINE
  5
297
330
3A1
100
AcDbEntity
  8
0
100
AcDbLine
 10
192.664
 20
-116.51
 30
0.0
 11
194.133
 21
-113.405
 31
0.0
  0
LINE
  5
298
330
3A1
100
AcDbEntity
  8
0
100
AcDbLine
 10
194.133
 20
-113.405
 30
0.0
 11
195.899
 21
-110.459
 31
0.0
  0
LINE
  5
299
330
3A1
100
AcDbEntity
  8
0
100
AcDbLine
 10
195.899
 20
-110.459
 30
0.0
 11
197.945
 21
-107.7
 31
0.0
  0
LINE
  5
29A
330
3A1
100
AcDbEntity
  8
0
100
AcDbLine
 10
197.945
 20
-107.7
 30
0.0
 11
200.251
 21
-105.155
 31
0.0
  0
LINE
  5
29B
330
3A1
100
AcDbEntity
  8
0
100
AcDbLine
 10
200.251
 20
-105.155
 30
0.0
 11
202.796
 21
-102.848
 31
0.0
  0
LINE
  5
29C
330
3A1
100
AcDbEntity
  8
0
100
AcDbLine
 10
202.796
 20
-102.848
 30
0.0
 11
205.555
 21
-100.802
 31
0.0
  0
LINE
  5
29D
330
3A1
100
AcDbEntity
  8
0
100
AcDbLine
 10
205.555
 20
-100.802
 30
0.0
 11
208.501
 21
-99.0366
 31
0.0
  0
LINE
  5
29E
330
3A1
100
AcDbEntity
  8
0
100
AcDbLine
 10
208.501
 20
-99.0366
 30
0.0
 11
211.606
 21
-97.568
 31
0.0
  0
LINE
  5
29F
330
3A1
100
AcDbEntity
  8
0
100
AcDbLine
 10
211.606
 20
-97.568
 30
0.0
 11
214.84
 21
-96.4109
 31
0.0
  0
LINE
  5
2A0
330
3A1
100
AcDbEntity
  8
0
100
AcDbLine
 10
214.84
 20
-96.4109
 30
0.0
 11
218.172
 21
-95.5763
 31
0.0
  0
LINE
  5
2A1
330
3A1
100
AcDbEntity
  8
0
100
AcDbLine
 10
218.172
 20
-95.5763
 30
0.0
 11
221.569
 21
-95.0723
 31
0.0
  0
LINE
  5
2A2
330
3A1
100
AcDbEntity
  8
0
100
AcDbLine
 10
221.569
 20
-95.0723
 30
0.0
 11
225.0
 21
-94.9038
 31
0.0
  0
LINE
  5
2A3
330
3A1
100
AcDbEntity
  8
0
100
AcDbLine
 10
225.0
 20
-94.9038
 30
0.0
 11
228.431
 21
-95.0723
 31
0.0
  0
LINE
  5
2A4
330
3A1
100
AcDbEntity
  8
0
100
AcDbLine
 10
228.431
 20
-95.0723
 30
0.0
 11
231.828
 21
-95.5763
 31
0.0
  0
LINE
  5
2A5
330
3A1
100
AcDbEntity
  8
0
100
AcDbLine
 10
231.828
 20
-95.5763
 30
0.0
 11
235.16
 21
-96.4109
 31
0.0
  0
LINE
  5
2A6
330
3A1
100
AcDbEntity
  8
0
100
AcDbLine
 10
235.16
 20
-96.4109
 30
0.0
 11
238.394
 21
-97.568
 31
0.0
  0
LINE
  5
2A7
330
3A1
100
AcDbEntity
  8
0
100
AcDbLine
 10
238.394
 20
-97.568
 30
0.0
 11
241.499
 21
-99.0366
 31
0.0
  0
LINE
  5
2A8
330
3A1
100
AcDbEntity
  8
0
100
AcDbLine
 10
241.499
 20
-99.0366
 30
0.0
 11
244.445
 21
-100.802
 31
0.0
  0
LINE
  5
2A9
330
3A1
100
AcDbEntity
  8
0
100
AcDbLine
 10
244.445
 20
-100.802
 30
0.0
 11
247.204
 21
-102.848
 31
0.0
  0
LINE
  5
2AA
330
3A1
100
AcDbEntity
  8
0
100
AcDbLine
 10
247.204
 20
-102.848
 30
0.0
 11
249.749
 21
-105.155
 31
0.0
  0
LINE
  5
2AB
330
3A1
100
AcDbEntity
  8
0
100
AcDbLine
 10
249.749
 20
-105.155
 30
0.0
 11
252.055
 21
-107.7
 31
0.0
  0
LINE
  5
2AC
330
3A1
100
AcDbEntity
  8
0
100
AcDbLine
 10
252.055
 20
-107.7
 30
0.0
 11
254.101
 21
-110.459
 31
0.0
  0
LINE
  5
2AD
330
3A1
100
AcDbEntity
  8
0
100
AcDbLine
 10
254.101
 20
-110.459
 30
0.0
 11
255.867
 21
-113.405
 31
0.0
  0
LINE
  5
2AE
330
3A1
100
AcDbEntity
  8
0
100
AcDbLine
 10
255.867
 20
-113.405
 30
0.0
 11
257.336
 21
-116.51
 31
0.0
  0
LINE
  5
2AF
330
3A1
100
AcDbEntity
  8
0
100
AcDbLine
 10
257.336
 20
-116.51
 30
0.0
 11
258.493
 21
-119.744
 31
0.0
  0
LINE
  5
2B0
330
3A1
100
AcDbEntity
  8
0
100
AcDbLine
 10
258.493
 20
-119.744
 30
0.0
 11
259.327
 21
-123.076
 31
0.0
  0
LINE
  5
2B1
330
3A1
100
AcDbEntity
  8
0
100
AcDbLine
 10
259.327
 20
-123.076
 30
0.0
 11
259.831
 21
-126.473
 31
0.0
  0
LINE
  5
2B2
330
3A1
100
AcDbEntity
  8
0
100
AcDbLine
 10
259.831
 20
-126.473
 30
0.0
 11
260.0
 21
-129.904
 31
0.0
  0
LINE
  5
2B3
330
3A1
100
AcDbEntity
  8
0
100
AcDbLine
 10
260.0
 20
-129.904
 30
0.0
 11
259.831
 21
-133.334
 31
0.0
  0
LINE
  5
2B4
330
3A1
100
AcDbEntity
  8
0
100
AcDbLine
 10
259.831
 20
-133.334
 30
0.0
 11
259.327
 21
-136.732
 31
0.0
  0
LINE
  5
2B5
330
3A1
100
AcDbEntity
  8
0
100
AcDbLine
 10
259.327
 20
-136.732
 30
0.0
 11
258.493
 21
-140.064
 31
0.0
  0
LINE
  5
2B6
330
3A1
100
AcDbEntity
  8
0
100
AcDbLine
 10
258.493
 20
-140.064
 30
0.0
 11
257.336
 21
-143.298
 31
0.0
  0
LINE
  5
2B7
330
3A1
100
AcDbEntity
  8
0
100
AcDbLine
 10
257.336
 20
-143.298
 30
0.0
 11
255.867
 21
-146.403
 31
0.0
  0
LINE
  5
2B8
330
3A1
100
AcDbEntity
  8
0
100
AcDbLine
 10
255.867
 20
-146.403
 30
0.0
 11
254.101
 21
-149.349
 31
0.0
  0
LINE
  5
2B9
330
3A1
100
AcDbEntity
  8
0
100
AcDbLine
 10
254.101
 20
-149.349
 30
0.0
 11
252.055
 21
-152.108
 31
0.0
  0
LINE
  5
2BA
330
3A1
100
AcDbEntity
  8
0
100
AcDbLine
 10
252.055
 20
-152.108
 30
0.0
 11
249.749
 21
-154.653
 31
0.0
  0
LINE
  5
2BB
330
3A1
100
AcDbEntity
  8
0
100
AcDbLine
 10
249.749
 20
-154.653
 30
0.0
 11
247.204
 21
-156.959
 31
0.0
  0
LINE
  5
2BC
330
3A1
100
AcDbEntity
  8
0
100
AcDbLine
 10
247.204
 20
-156.959
 30
0.0
 11
244.445
 21
-159.005
 31
0.0
  0
LINE
  5
2BD
330
3A1
100
AcDbEntity
  8
0
100
AcDbLine
 10
244.445
 20
-159.005
 30
0.0
 11
241.499
 21
-160.771
 31
0.0
  0
LINE
  5
2BE
330
3A1
100
AcDbEntity
  8
0
100
AcDbLine
 10
241.499
 20
-160.771
 30
0.0
 11
238.394
 21
-162.24
 31
0.0
  0
LINE
  5
2BF
330
3A1
100
AcDbEntity
  8
0
100
AcDbLine
 10
238.394
 20
-162.24
 30
0.0
 11
235.16
 21
-163.397
 31
0.0
  0
LINE
  5
2C0
330
3A1
100
AcDbEntity
  8
0
100
AcDbLine
 10
235.16
 20
-163.397
 30
0.0
 11
231.828
 21
-164.231
 31
0.0
  0
LINE
  5
2C1
330
3A1
100
AcDbEntity
  8
0
100
AcDbLine
 10
231.828
 20
-164.231
 30
0.0
 11
228.431
 21
-164.735
 31
0.0
  0
LINE
  5
2C2
330
3A1
100
AcDbEntity
  8
0
100
AcDbLine
 10
228.431
 20
-164.735
 30
0.0
 11
225.0
 21
-164.904
 31
0.0
  0
LINE
  5
2C3
330
3A1
100
AcDbEntity
  8
0
100
AcDbLine
 10
225.0
 20
-164.904
 30
0.0
 11
221.569
 21
-164.735
 31
0.0
  0
LINE
  5
2C4
330
3A1
100
AcDbEntity
  8
0
100
AcDbLine
 10
-153.431
 20
-294.639
 30
0.0
 11
-156.828
 21
-294.135
 31
0.0
  0
LINE
  5
2C5
330
3A1
100
AcDbEntity
  8
0
100
AcDbLine
 10
-156.828
 20
-294.135
 30
0.0
 11
-160.16
 21
-293.301
 31
0.0
  0
LINE
  5
2C6
330
3A1
100
AcDbEntity
  8
0
100
AcDbLine
 10
-160.16
 20
-293.301
 30
0.0
 11
-163.394
 21
-292.143
 31
0.0
  0
LINE
  5
2C7
330
3A1
100
AcDbEntity
  8
0
100
AcDbLine
 10
-163.394
 20
-292.143
 30
0.0
 11
-166.499
 21
-290.675
 31
0.0
  0
LINE
  5
2C8
330
3A1
100
AcDbEntity
  8
0
100
AcDbLine
 10
-166.499
 20
-290.675
 30
0.0
 11
-169.445
 21
-288.909
 31
0.0
  0
LINE
  5
2C9
330
3A1
100
AcDbEntity
  8
0
100
AcDbLine
 10
-169.445
 20
-288.909
 30
0.0
 11
-172.204
 21
-286.863
 31
0.0
  0
LINE
  5
2CA
330
3A1
100
AcDbEntity
  8
0
100
AcDbLine
 10
-172.204
 20
-286.863
 30
0.0
 11
-174.749
 21
-284.556
 31
0.0
  0
LINE
  5
2CB
330
3A1
100
AcDbEntity
  8
0
100
AcDbLine
 10
-174.749
 20
-284.556
 30
0.0
 11
-177.055
 21
-282.011
 31
0.0
  0
LINE
  5
2CC
330
3A1
100
AcDbEntity
  8
0
100
AcDbLine
 10
-177.055
 20
-282.011
 30
0.0
 11
-179.101
 21
-279.253
 31
0.0
  0
LINE
  5
2CD
330
3A1
100
AcDbEntity
  8
0
100
AcDbLine
 10
-179.101
 20
-279.253
 30
0.0
 11
-180.867
 21
-276.307
 31
0.0
  0
LINE
  5
2CE
330
3A1
100
AcDbEntity
  8
0
100
AcDbLine
 10
-180.867
 20
-276.307
 30
0.0
 11
-182.336
 21
-273.202
 31
0.0
  0
LINE
  5
2CF
330
3A1
100
AcDbEntity
  8
0
100
AcDbLine
 10
-182.336
 20
-273.202
 30
0.0
 11
-183.493
 21
-269.968
 31
0.0
  0
LINE
  5
2D0
330
3A1
100
AcDbEntity
  8
0
100
AcDbLine
 10
-183.493
 20
-269.968
 30
0.0
 11
-184.327
 21
-266.636
 31
0.0
  0
LINE
  5
2D1
330
3A1
100
AcDbEntity
  8
0
100
AcDbLine
 10
-184.327
 20
-266.636
 30
0.0
 11
-184.831
 21
-263.238
 31
0.0
  0
LINE
  5
2D2
330
3A1
100
AcDbEntity
  8
0
100
AcDbLine
 10
-184.831
 20
-263.238
 30
0.0
 11
-185.0
 21
-259.808
 31
0.0
  0
LINE
  5
2D3
330
3A1
100
AcDbEntity
  8
0
100
AcDbLine
 10
-185.0
 20
-259.808
 30
0.0
 11
-184.831
 21
-256.377
 31
0.0
  0
LINE
  5
2D4
330
3A1
100
AcDbEntity
  8
0
100
AcDbLine
 10
-184.831
 20
-256.377
 30
0.0
 11
-184.327
 21
-252.979
 31
0.0
  0
LINE
  5
2D5
330
3A1
100
AcDbEntity
  8
0
100
AcDbLine
 10
-184.327
 20
-252.979
 30
0.0
 11
-183.493
 21
-249.648
 31
0.0
  0
LINE
  5
2D6
330
3A1
100
AcDbEntity
  8
0
100
AcDbLine
 10
-183.493
 20
-249.648
 30
0.0
 11
-182.336
 21
-246.414
 31
0.0
  0
LINE
  5
2D7
330
3A1
100
AcDbEntity
  8
0
100
AcDbLine
 10
-182.336
 20
-246.414
 30
0.0
 11
-180.867
 21
-243.309
 31
0.0
  0
LINE
  5
2D8
330
3A1
100
AcDbEntity
  8
0
100
AcDbLine
 10
-180.867
 20
-243.309
 30
0.0
 11
-179.101
 21
-240.363
 31
0.0
  0
LINE
  5
2D9
330
3A1
100
AcDbEntity
  8
0
100
AcDbLine
 10
-179.101
 20
-240.363
 30
0.0
 11
-177.055
 21
-237.604
 31
0.0
  0
LINE
  5
2DA
330
3A1
100
AcDbEntity
  8
0
100
AcDbLine
 10
-177.055
 20
-237.604
 30
0.0
 11
-174.749
 21
-235.059
 31
0.0
  0
LINE
  5
2DB
330
3A1
100
AcDbEntity
  8
0
100
AcDbLine
 10
-174.749
 20
-235.059
 30
0.0
 11
-172.204
 21
-232.752
 31
0.0
  0
LINE
  5
2DC
330
3A1
100
AcDbEntity
  8
0
100
AcDbLine
 10
-172.204
 20
-232.752
 30
0.0
 11
-169.445
 21
-230.706
 31
0.0
  0
LINE
  5
2DD
330
3A1
100
AcDbEntity
  8
0
100
AcDbLine
 10
-169.445
 20
-230.706
 30
0.0
 11
-166.499
 21
-228.94
 31
0.0
  0
LINE
  5
2DE
330
3A1
100
AcDbEntity
  8
0
100
AcDbLine
 10
-166.499
 20
-228.94
 30
0.0
 11
-163.394
 21
-227.472
 31
0.0
  0
LINE
  5
2DF
330
3A1
100
AcDbEntity
  8
0
100
AcDbLine
 10
-163.394
 20
-227.472
 30
0.0
 11
-160.16
 21
-226.315
 31
0.0
  0
LINE
  5
2E0
330
3A1
100
AcDbEntity
  8
0
100
AcDbLine
 10
-160.16
 20
-226.315
 30
0.0
 11
-156.828
 21
-225.48
 31
0.0
  0
LINE
  5
2E1
330
3A1
100
AcDbEntity
  8
0
100
AcDbLine
 10
-156.828
 20
-225.48
 30
0.0
 11
-153.431
 21
-224.976
 31
0.0
  0
LINE
  5
2E2
330
3A1
100
AcDbEntity
  8
0
100
AcDbLine
 10
-153.431
 20
-224.976
 30
0.0
 11
-150.0
 21
-224.808
 31
0.0
  0
LINE
  5
2E3
330
3A1
100
AcDbEntity
  8
0
100
AcDbLine
 10
-150.0
 20
-224.808
 30
0.0
 11
-146.569
 21
-224.976
 31
0.0
  0
LINE
  5
2E4
330
3A1
100
AcDbEntity
  8
0
100
AcDbLine
 10
-146.569
 20
-224.976
 30
0.0
 11
-143.172
 21
-225.48
 31
0.0
  0
LINE
  5
2E5
330
3A1
100
AcDbEntity
  8
0
100
AcDbLine
 10
-143.172
 20
-225.48
 30
0.0
 11
-139.84
 21
-226.315
 31
0.0
  0
LINE
  5
2E6
330
3A1
100
AcDbEntity
  8
0
100
AcDbLine
 10
-139.84
 20
-226.315
 30
0.0
 11
-136.606
 21
-227.472
 31
0.0
  0
LINE
  5
2E7
330
3A1
100
AcDbEntity
  8
0
100
AcDbLine
 10
-136.606
 20
-227.472
 30
0.0
 11
-133.501
 21
-228.94
 31
0.0
  0
LINE
  5
2E8
330
3A1
100
AcDbEntity
  8
0
100
AcDbLine
 10
-133.501
 20
-228.94
 30
0.0
 11
-130.555
 21
-230.706
 31
0.0
  0
LINE
  5
2E9
330
3A1
100
AcDbEntity
  8
0
100
AcDbLine
 10
-130.555
 20
-230.706
 30
0.0
 11
-127.796
 21
-232.752
 31
0.0
  0
LINE
  5
2EA
330
3A1
100
AcDbEntity
  8
0
100
AcDbLine
 10
-127.796
 20
-232.752
 30
0.0
 11
-125.251
 21
-235.059
 31
0.0
  0
LINE
  5
2EB
330
3A1
100
AcDbEntity
  8
0
100
AcDbLine
 10
-125.251
 20
-235.059
 30
0.0
 11
-122.945
 21
-237.604
 31
0.0
  0
LINE
  5
2EC
330
3A1
100
AcDbEntity
  8
0
100
AcDbLine
 10
-122.945
 20
-237.604
 30
0.0
 11
-120.899
 21
-240.363
 31
0.0
  0
LINE
  5
2ED
330
3A1
100
AcDbEntity
  8
0
100
AcDbLine
 10
-120.899
 20
-240.363
 30
0.0
 11
-119.133
 21
-243.309
 31
0.0
  0
LINE
  5
2EE
330
3A1
100
AcDbEntity
  8
0
100
AcDbLine
 10
-119.133
 20
-243.309
 30
0.0
 11
-117.664
 21
-246.414
 31
0.0
  0
LINE
  5
2EF
330
3A1
100
AcDbEntity
  8
0
100
AcDbLine
 10
-117.664
 20
-246.414
 30
0.0
 11
-116.507
 21
-249.648
 31
0.0
  0
LINE
  5
2F0
330
3A1
100
AcDbEntity
  8
0
100
AcDbLine
 10
-116.507
 20
-249.648
 30
0.0
 11
-115.673
 21
-252.979
 31
0.0
  0
LINE
  5
2F1
330
3A1
100
AcDbEntity
  8
0
100
AcDbLine
 10
-115.673
 20
-252.979
 30
0.0
 11
-115.169
 21
-256.377
 31
0.0
  0
LINE
  5
2F2
330
3A1
100
AcDbEntity
  8
0
100
AcDbLine
 10
-115.169
 20
-256.377
 30
0.0
 11
-115.0
 21
-259.808
 31
0.0
  0
LINE
  5
2F3
330
3A1
100
AcDbEntity
  8
0
100
AcDbLine
 10
-115.0
 20
-259.808
 30
0.0
 11
-115.169
 21
-263.238
 31
0.0
  0
LINE
  5
2F4
330
3A1
100
AcDbEntity
  8
0
100
AcDbLine
 10
-115.169
 20
-263.238
 30
0.0
 11
-115.673
 21
-266.636
 31
0.0
  0
LINE
  5
2F5
330
3A1
100
AcDbEntity
  8
0
100
AcDbLine
 10
-115.673
 20
-266.636
 30
0.0
 11
-116.507
 21
-269.968
 31
0.0
  0
LINE
  5
2F6
330
3A1
100
AcDbEntity
  8
0
100
AcDbLine
 10
-116.507
 20
-269.968
 30
0.0
 11
-117.664
 21
-273.202
 31
0.0
  0
LINE
  5
2F7
330
3A1
100
AcDbEntity
  8
0
100
AcDbLine
 10
-117.664
 20
-273.202
 30
0.0
 11
-119.133
 21
-276.307
 31
0.0
  0
LINE
  5
2F8
330
3A1
100
AcDbEntity
  8
0
100
AcDbLine
 10
-119.133
 20
-276.307
 30
0.0
 11
-120.899
 21
-279.253
 31
0.0
  0
LINE
  5
2F9
330
3A1
100
AcDbEntity
  8
0
100
AcDbLine
 10
-120.899
 20
-279.253
 30
0.0
 11
-122.945
 21
-282.011
 31
0.0
  0
LINE
  5
2FA
330
3A1
100
AcDbEntity
  8
0
100
AcDbLine
 10
-122.945
 20
-282.011
 30
0.0
 11
-125.251
 21
-284.556
 31
0.0
  0
LINE
  5
2FB
330
3A1
100
AcDbEntity
  8
0
100
AcDbLine
 10
-125.251
 20
-284.556
 30
0.0
 11
-127.796
 21
-286.863
 31
0.0
  0
LINE
  5
2FC
330
3A1
100
AcDbEntity
  8
0
100
AcDbLine
 10
-127.796
 20
-286.863
 30
0.0
 11
-130.555
 21
-288.909
 31
0.0
  0
LINE
  5
2FD
330
3A1
100
AcDbEntity
  8
0
100
AcDbLine
 10
-130.555
 20
-288.909
 30
0.0
 11
-133.501
 21
-290.675
 31
0.0
  0
LINE
  5
2FE
330
3A1
100
AcDbEntity
  8
0
100
AcDbLine
 10
-133.501
 20
-290.675
 30
0.0
 11
-136.606
 21
-292.143
 31
0.0
  0
LINE
  5
2FF
330
3A1
100
AcDbEntity
  8
0
100
AcDbLine
 10
-136.606
 20
-292.143
 30
0.0
 11
-139.84
 21
-293.301
 31
0.0
  0
LINE
  5
300
330
3A1
100
AcDbEntity
  8
0
100
AcDbLine
 10
-139.84
 20
-293.301
 30
0.0
 11
-143.172
 21
-294.135
 31
0.0
  0
LINE
  5
301
330
3A1
100
AcDbEntity
  8
0
100
AcDbLine
 10
-143.172
 20
-294.135
 30
0.0
 11
-146.569
 21
-294.639
 31
0.0
  0
LINE
  5
302
330
3A1
100
AcDbEntity
  8
0
100
AcDbLine
 10
-146.569
 20
-294.639
 30
0.0
 11
-150.0
 21
-294.808
 31
0.0
  0
LINE
  5
303
330
3A1
100
AcDbEntity
  8
0
100
AcDbLine
 10
-150.0
 20
-294.808
 30
0.0
 11
-153.431
 21
-294.639
 31
0.0
  0
LINE
  5
304
330
3A1
100
AcDbEntity
  8
0
100
AcDbLine
 10
-3.43059
 20
-294.639
 30
0.0
 11
-6.82816
 21
-294.135
 31
0.0
  0
LINE
  5
305
330
3A1
100
AcDbEntity
  8
0
100
AcDbLine
 10
-6.82816
 20
-294.135
 30
0.0
 11
-10.16
 21
-293.301
 31
0.0
  0
LINE
  5
306
330
3A1
100
AcDbEntity
  8
0
100
AcDbLine
 10
-10.16
 20
-293.301
 30
0.0
 11
-13.3939
 21
-292.143
 31
0.0
  0
LINE
  5
307
330
3A1
100
AcDbEntity
  8
0
100
AcDbLine
 10
-13.3939
 20
-292.143
 30
0.0
 11
-16.4989
 21
-290.675
 31
0.0
  0
LINE
  5
308
330
3A1
100
AcDbEntity
  8
0
100
AcDbLine
 10
-16.4989
 20
-290.675
 30
0.0
 11
-19.4449
 21
-288.909
 31
0.0
  0
LINE
  5
309
330
3A1
100
AcDbEntity
  8
0
100
AcDbLine
 10
-19.4449
 20
-288.909
 30
0.0
 11
-22.2038
 21
-286.863
 31
0.0
  0
LINE
  5
30A
330
3A1
100
AcDbEntity
  8
0
100
AcDbLine
 10
-22.2038
 20
-286.863
 30
0.0
 11
-24.7487
 21
-284.556
 31
0.0
  0
LINE
  5
30B
330
3A1
100
AcDbEntity
  8
0
100
AcDbLine
 10
-24.7487
 20
-284.556
 30
0.0
 11
-27.0554
 21
-282.011
 31
0.0
  0
LINE
  5
30C
330
3A1
100
AcDbEntity
  8
0
100
AcDbLine
 10
-27.0554
 20
-282.011
 30
0.0
 11
-29.1014
 21
-279.253
 31
0.0
  0
LINE
  5
30D
330
3A1
100
AcDbEntity
  8
0
100
AcDbLine
 10
-29.1014
 20
-279.253
 30
0.0
 11
-30.8672
 21
-276.307
 31
0.0
  0
LINE
  5
30E
330
3A1
100
AcDbEntity
  8
0
100
AcDbLine
 10
-30.8672
 20
-276.307
 30
0.0
 11
-32.3358
 21
-273.202
 31
0.0
  0
LINE
  5
30F
330
3A1
100
AcDbEntity
  8
0
100
AcDbLine
 10
-32.3358
 20
-273.202
 30
0.0
 11
-33.4929
 21
-269.968
 31
0.0
  0
LINE
  5
310
330
3A1
100
AcDbEntity
  8
0
100
AcDbLine
 10
-33.4929
 20
-269.968
 30
0.0
 11
-34.3275
 21
-266.636
 31
0.0
  0
LINE
  5
311
330
3A1
100
AcDbEntity
  8
0
100
AcDbLine
 10
-34.3275
 20
-266.636
 30
0.0
 11
-34.8315
 21
-263.238
 31
0.0
  0
LINE
  5
312
330
3A1
100
AcDbEntity
  8
0
100
AcDbLine
 10
-34.8315
 20
-263.238
 30
0.0
 11
-35.0
 21
-259.808
 31
0.0
  0
LINE
  5
313
330
3A1
100
AcDbEntity
  8
0
100
AcDbLine
 10
-35.0
 20
-259.808
 30
0.0
 11
-34.8315
 21
-256.377
 31
0.0
  0
LINE
  5
314
330
3A1
100
AcDbEntity
  8
0
100
AcDbLine
 10
-34.8315
 20
-256.377
 30
0.0
 11
-34.3275
 21
-252.979
 31
0.0
  0
LINE
  5
315
330
3A1
100
AcDbEntity
  8
0
100
AcDbLine
 10
-34.3275
 20
-252.979
 30
0.0
 11
-33.4929
 21
-249.648
 31
0.0
  0
LINE
  5
316
330
3A1
100
AcDbEntity
  8
0
100
AcDbLine
 10
-33.4929
 20
-249.648
 30
0.0
 11
-32.3358
 21
-246.414
 31
0.0
  0
LINE
  5
317
330
3A1
100
AcDbEntity
  8
0
100
AcDbLine
 10
-32.3358
 20
-246.414
 30
0.0
 11
-30.8672
 21
-243.309
 31
0.0
  0
LINE
  5
318
330
3A1
100
AcDbEntity
  8
0
100
AcDbLine
 10
-30.8672
 20
-243.309
 30
0.0
 11
-29.1014
 21
-240.363
 31
0.0
  0
LINE
  5
319
330
3A1
100
AcDbEntity
  8
0
100
AcDbLine
 10
-29.1014
 20
-240.363
 30
0.0
 11
-27.0554
 21
-237.604
 31
0.0
  0
LINE
  5
31A
330
3A1
100
AcDbEntity
  8
0
100
AcDbLine
 10
-27.0554
 20
-237.604
 30
0.0
 11
-24.7487
 21
-235.059
 31
0.0
  0
LINE
  5
31B
330
3A1
100
AcDbEntity
  8
0
100
AcDbLine
 10
-24.7487
 20
-235.059
 30
0.0
 11
-22.2038
 21
-232.752
 31
0.0
  0
LINE
  5
31C
330
3A1
100
AcDbEntity
  8
0
100
AcDbLine
 10
-22.2038
 20
-232.752
 30
0.0
 11
-19.4449
 21
-230.706
 31
0.0
  0
LINE
  5
31D
330
3A1
100
AcDbEntity
  8
0
100
AcDbLine
 10
-19.4449
 20
-230.706
 30
0.0
 11
-16.4989
 21
-228.94
 31
0.0
  0
LINE
  5
31E
330
3A1
100
AcDbEntity
  8
0
100
AcDbLine
 10
-16.4989
 20
-228.94
 30
0.0
 11
-13.3939
 21
-227.472
 31
0.0
  0
LINE
  5
31F
330
3A1
100
AcDbEntity
  8
0
100
AcDbLine
 10
-13.3939
 20
-227.472
 30
0.0
 11
-10.16
 21
-226.315
 31
0.0
  0
LINE
  5
320
330
3A1
100
AcDbEntity
  8
0
100
AcDbLine
 10
-10.16
 20
-226.315
 30
0.0
 11
-6.82816
 21
-225.48
 31
0.0
  0
LINE
  5
321
330
3A1
100
AcDbEntity
  8
0
100
AcDbLine
 10
-6.82816
 20
-225.48
 30
0.0
 11
-3.43059
 21
-224.976
 31
0.0
  0
LINE
  5
322
330
3A1
100
AcDbEntity
  8
0
100
AcDbLine
 10
-3.43059
 20
-224.976
 30
0.0
 11
0.0
 21
-224.808
 31
0.0
  0
LINE
  5
323
330
3A1
100
AcDbEntity
  8
0
100
AcDbLine
 10
0.0
 20
-224.808
 30
0.0
 11
3.43059
 21
-224.976
 31
0.0
  0
LINE
  5
324
330
3A1
100
AcDbEntity
  8
0
100
AcDbLine
 10
3.43059
 20
-224.976
 30
0.0
 11
6.82816
 21
-225.48
 31
0.0
  0
LINE
  5
325
330
3A1
100
AcDbEntity
  8
0
100
AcDbLine
 10
6.82816
 20
-225.48
 30
0.0
 11
10.16
 21
-226.315
 31
0.0
  0
LINE
  5
326
330
3A1
100
AcDbEntity
  8
0
100
AcDbLine
 10
10.16
 20
-226.315
 30
0.0
 11
13.3939
 21
-227.472
 31
0.0
  0
LINE
  5
327
330
3A1
100
AcDbEntity
  8
0
100
AcDbLine
 10
13.3939
 20
-227.472
 30
0.0
 11
16.4989
 21
-228.94
 31
0.0
  0
LINE
  5
328
330
3A1
100
AcDbEntity
  8
0
100
AcDbLine
 10
16.4989
 20
-228.94
 30
0.0
 11
19.4449
 21
-230.706
 31
0.0
  0
LINE
  5
329
330
3A1
100
AcDbEntity
  8
0
100
AcDbLine
 10
19.4449
 20
-230.706
 30
0.0
 11
22.2038
 21
-232.752
 31
0.0
  0
LINE
  5
32A
330
3A1
100
AcDbEntity
  8
0
100
AcDbLine
 10
22.2038
 20
-232.752
 30
0.0
 11
24.7487
 21
-235.059
 31
0.0
  0
LINE
  5
32B
330
3A1
100
AcDbEntity
  8
0
100
AcDbLine
 10
24.7487
 20
-235.059
 30
0.0
 11
27.0554
 21
-237.604
 31
0.0
  0
LINE
  5
32C
330
3A1
100
AcDbEntity
  8
0
100
AcDbLine
 10
27.0554
 20
-237.604
 30
0.0
 11
29.1014
 21
-240.363
 31
0.0
  0
LINE
  5
32D
330
3A1
100
AcDbEntity
  8
0
100
AcDbLine
 10
29.1014
 20
-240.363
 30
0.0
 11
30.8672
 21
-243.309
 31
0.0
  0
LINE
  5
32E
330
3A1
100
AcDbEntity
  8
0
100
AcDbLine
 10
30.8672
 20
-243.309
 30
0.0
 11
32.3358
 21
-246.414
 31
0.0
  0
LINE
  5
32F
330
3A1
100
AcDbEntity
  8
0
100
AcDbLine
 10
32.3358
 20
-246.414
 30
0.0
 11
33.4929
 21
-249.648
 31
0.0
  0
LINE
  5
330
330
3A1
100
AcDbEntity
  8
0
100
AcDbLine
 10
33.4929
 20
-249.648
 30
0.0
 11
34.3275
 21
-252.979
 31
0.0
  0
LINE
  5
331
330
3A1
100
AcDbEntity
  8
0
100
AcDbLine
 10
34.3275
 20
-252.979
 30
0.0
 11
34.8315
 21
-256.377
 31
0.0
  0
LINE
  5
332
330
3A1
100
AcDbEntity
  8
0
100
AcDbLine
 10
34.8315
 20
-256.377
 30
0.0
 11
35.0
 21
-259.808
 31
0.0
  0
LINE
  5
333
330
3A1
100
AcDbEntity
  8
0
100
AcDbLine
 10
35.0
 20
-259.808
 30
0.0
 11
34.8315
 21
-263.238
 31
0.0
  0
LINE
  5
334
330
3A1
100
AcDbEntity
  8
0
100
AcDbLine
 10
34.8315
 20
-263.238
 30
0.0
 11
34.3275
 21
-266.636
 31
0.0
  0
LINE
  5
335
330
3A1
100
AcDbEntity
  8
0
100
AcDbLine
 10
34.3275
 20
-266.636
 30
0.0
 11
33.4929
 21
-269.968
 31
0.0
  0
LINE
  5
336
330
3A1
100
AcDbEntity
  8
0
100
AcDbLine
 10
33.4929
 20
-269.968
 30
0.0
 11
32.3358
 21
-273.202
 31
0.0
  0
LINE
  5
337
330
3A1
100
AcDbEntity
  8
0
100
AcDbLine
 10
32.3358
 20
-273.202
 30
0.0
 11
30.8672
 21
-276.307
 31
0.0
  0
LINE
  5
338
330
3A1
100
AcDbEntity
  8
0
100
AcDbLine
 10
30.8672
 20
-276.307
 30
0.0
 11
29.1014
 21
-279.253
 31
0.0
  0
LINE
  5
339
330
3A1
100
AcDbEntity
  8
0
100
AcDbLine
 10
29.1014
 20
-279.253
 30
0.0
 11
27.0554
 21
-282.011
 31
0.0
  0
LINE
  5
33A
330
3A1
100
AcDbEntity
  8
0
100
AcDbLine
 10
27.0554
 20
-282.011
 30
0.0
 11
24.7487
 21
-284.556
 31
0.0
  0
LINE
  5
33B
330
3A1
100
AcDbEntity
  8
0
100
AcDbLine
 10
24.7487
 20
-284.556
 30
0.0
 11
22.2038
 21
-286.863
 31
0.0
  0
LINE
  5
33C
330
3A1
100
AcDbEntity
  8
0
100
AcDbLine
 10
22.2038
 20
-286.863
 30
0.0
 11
19.4449
 21
-288.909
 31
0.0
  0
LINE
  5
33D
330
3A1
100
AcDbEntity
  8
0
100
AcDbLine
 10
19.4449
 20
-288.909
 30
0.0
 11
16.4989
 21
-290.675
 31
0.0
  0
LINE
  5
33E
330
3A1
100
AcDbEntity
  8
0
100
AcDbLine
 10
16.4989
 20
-290.675
 30
0.0
 11
13.3939
 21
-292.143
 31
0.0
  0
LINE
  5
33F
330
3A1
100
AcDbEntity
  8
0
100
AcDbLine
 10
13.3939
 20
-292.143
 30
0.0
 11
10.16
 21
-293.301
 31
0.0
  0
LINE
  5
340
330
3A1
100
AcDbEntity
  8
0
100
AcDbLine
 10
10.16
 20
-293.301
 30
0.0
 11
6.82816
 21
-294.135
 31
0.0
  0
LINE
  5
341
330
3A1
100
AcDbEntity
  8
0
100
AcDbLine
 10
6.82816
 20
-294.135
 30
0.0
 11
3.43059
 21
-294.639
 31
0.0
  0
LINE
  5
342
330
3A1
100
AcDbEntity
  8
0
100
AcDbLine
 10
3.43059
 20
-294.639
 30
0.0
 11
0.0
 21
-294.808
 31
0.0
  0
LINE
  5
343
330
3A1
100
AcDbEntity
  8
0
100
AcDbLine
 10
0.0
 20
-294.808
 30
0.0
 11
-3.43059
 21
-294.639
 31
0.0
  0
LINE
  5
344
330
3A1
100
AcDbEntity
  8
0
100
AcDbLine
 10
146.569
 20
-294.639
 30
0.0
 11
143.172
 21
-294.135
 31
0.0
  0
LINE
  5
345
330
3A1
100
AcDbEntity
  8
0
100
AcDbLine
 10
143.172
 20
-294.135
 30
0.0
 11
139.84
 21
-293.301
 31
0.0
  0
LINE
  5
346
330
3A1
100
AcDbEntity
  8
0
100
AcDbLine
 10
139.84
 20
-293.301
 30
0.0
 11
136.606
 21
-292.143
 31
0.0
  0
LINE
  5
347
330
3A1
100
AcDbEntity
  8
0
100
AcDbLine
 10
136.606
 20
-292.143
 30
0.0
 11
133.501
 21
-290.675
 31
0.0
  0
LINE
  5
348
330
3A1
100
AcDbEntity
  8
0
100
AcDbLine
 10
133.501
 20
-290.675
 30
0.0
 11
130.555
 21
-288.909
 31
0.0
  0
LINE
  5
349
330
3A1
100
AcDbEntity
  8
0
100
AcDbLine
 10
130.555
 20
-288.909
 30
0.0
 11
127.796
 21
-286.863
 31
0.0
  0
LINE
  5
34A
330
3A1
100
AcDbEntity
  8
0
100
AcDbLine
 10
127.796
 20
-286.863
 30
0.0
 11
125.251
 21
-284.556
 31
0.0
  0
LINE
  5
34B
330
3A1
100
AcDbEntity
  8
0
100
AcDbLine
 10
125.251
 20
-284.556
 30
0.0
 11
122.945
 21
-282.011
 31
0.0
  0
LINE
  5
34C
330
3A1
100
AcDbEntity
  8
0
100
AcDbLine
 10
122.945
 20
-282.011
 30
0.0
 11
120.899
 21
-279.253
 31
0.0
  0
LINE
  5
34D
330
3A1
100
AcDbEntity
  8
0
100
AcDbLine
 10
120.899
 20
-279.253
 30
0.0
 11
119.133
 21
-276.307
 31
0.0
  0
LINE
  5
34E
330
3A1
100
AcDbEntity
  8
0
100
AcDbLine
 10
119.133
 20
-276.307
 30
0.0
 11
117.664
 21
-273.202
 31
0.0
  0
LINE
  5
34F
330
3A1
100
AcDbEntity
  8
0
100
AcDbLine
 10
117.664
 20
-273.202
 30
0.0
 11
116.507
 21
-269.968
 31
0.0
  0
LINE
  5
350
330
3A1
100
AcDbEntity
  8
0
100
AcDbLine
 10
116.507
 20
-269.968
 30
0.0
 11
115.673
 21
-266.636
 31
0.0
  0
LINE
  5
351
330
3A1
100
AcDbEntity
  8
0
100
AcDbLine
 10
115.673
 20
-266.636
 30
0.0
 11
115.169
 21
-263.238
 31
0.0
  0
LINE
  5
352
330
3A1
100
AcDbEntity
  8
0
100
AcDbLine
 10
115.169
 20
-263.238
 30
0.0
 11
115.0
 21
-259.808
 31
0.0
  0
LINE
  5
353
330
3A1
100
AcDbEntity
  8
0
100
AcDbLine
 10
115.0
 20
-259.808
 30
0.0
 11
115.169
 21
-256.377
 31
0.0
  0
LINE
  5
354
330
3A1
100
AcDbEntity
  8
0
100
AcDbLine
 10
115.169
 20
-256.377
 30
0.0
 11
115.673
 21
-252.979
 31
0.0
  0
LINE
  5
355
330
3A1
100
AcDbEntity
  8
0
100
AcDbLine
 10
115.673
 20
-252.979
 30
0.0
 11
116.507
 21
-249.648
 31
0.0
  0
LINE
  5
356
330
3A1
100
AcDbEntity
  8
0
100
AcDbLine
 10
116.507
 20
-249.648
 30
0.0
 11
117.664
 21
-246.414
 31
0.0
  0
LINE
  5
357
330
3A1
100
AcDbEntity
  8
0
100
AcDbLine
 10
117.664
 20
-246.414
 30
0.0
 11
119.133
 21
-243.309
 31
0.0
  0
LINE
  5
358
330
3A1
100
AcDbEntity
  8
0
100
AcDbLine
 10
119.133
 20
-243.309
 30
0.0
 11
120.899
 21
-240.363
 31
0.0
  0
LINE
  5
359
330
3A1
100
AcDbEntity
  8
0
100
AcDbLine
 10
120.899
 20
-240.363
 30
0.0
 11
122.945
 21
-237.604
 31
0.0
  0
LINE
  5
35A
330
3A1
100
AcDbEntity
  8
0
100
AcDbLine
 10
122.945
 20
-237.604
 30
0.0
 11
125.251
 21
-235.059
 31
0.0
  0
LINE
  5
35B
330
3A1
100
AcDbEntity
  8
0
100
AcDbLine
 10
125.251
 20
-235.059
 30
0.0
 11
127.796
 21
-232.752
 31
0.0
  0
LINE
  5
35C
330
3A1
100
AcDbEntity
  8
0
100
AcDbLine
 10
127.796
 20
-232.752
 30
0.0
 11
130.555
 21
-230.706
 31
0.0
  0
LINE
  5
35D
330
3A1
100
AcDbEntity
  8
0
100
AcDbLine
 10
130.555
 20
-230.706
 30
0.0
 11
133.501
 21
-228.94
 31
0.0
  0
LINE
  5
35E
330
3A1
100
AcDbEntity
  8
0
100
AcDbLine
 10
133.501
 20
-228.94
 30
0.0
 11
136.606
 21
-227.472
 31
0.0
  0
LINE
  5
35F
330
3A1
100
AcDbEntity
  8
0
100
AcDbLine
 10
136.606
 20
-227.472
 30
0.0
 11
139.84
 21
-226.315
 31
0.0
  0
LINE
  5
360
330
3A1
100
AcDbEntity
  8
0
100
AcDbLine
 10
139.84
 20
-226.315
 30
0.0
 11
143.172
 21
-225.48
 31
0.0
  0
LINE
  5
361
330
3A1
100
AcDbEntity
  8
0
100
AcDbLine
 10
143.172
 20
-225.48
 30
0.0
 11
146.569
 21
-224.976
 31
0.0
  0
LINE
  5
362
330
3A1
100
AcDbEntity
  8
0
100
AcDbLine
 10
146.569
 20
-224.976
 30
0.0
 11
150.0
 21
-224.808
 31
0.0
  0
LINE
  5
363
330
3A1
100
AcDbEntity
  8
0
100
AcDbLine
 10
150.0
 20
-224.808
 30
0.0
 11
153.431
 21
-224.976
 31
0.0
  0
LINE
  5
364
330
3A1
100
AcDbEntity
  8
0
100
AcDbLine
 10
153.431
 20
-224.976
 30
0.0
 11
156.828
 21
-225.48
 31
0.0
  0
LINE
  5
365
330
3A1
100
AcDbEntity
  8
0
100
AcDbLine
 10
156.828
 20
-225.48
 30
0.0
 11
160.16
 21
-226.315
 31
0.0
  0
LINE
  5
366
330
3A1
100
AcDbEntity
  8
0
100
AcDbLine
 10
160.16
 20
-226.315
 30
0.0
 11
163.394
 21
-227.472
 31
0.0
  0
LINE
  5
367
330
3A1
100
AcDbEntity
  8
0
100
AcDbLine
 10
163.394
 20
-227.472
 30
0.0
 11
166.499
 21
-228.94
 31
0.0
  0
LINE
  5
368
330
3A1
100
AcDbEntity
  8
0
100
AcDbLine
 10
166.499
 20
-228.94
 30
0.0
 11
169.445
 21
-230.706
 31
0.0
  0
LINE
  5
369
330
3A1
100
AcDbEntity
  8
0
100
AcDbLine
 10
169.445
 20
-230.706
 30
0.0
 11
172.204
 21
-232.752
 31
0.0
  0
LINE
  5
36A
330
3A1
100
AcDbEntity
  8
0
100
AcDbLine
 10
172.204
 20
-232.752
 30
0.0
 11
174.749
 21
-235.059
 31
0.0
  0
LINE
  5
36B
330
3A1
100
AcDbEntity
  8
0
100
AcDbLine
 10
174.749
 20
-235.059
 30
0.0
 11
177.055
 21
-237.604
 31
0.0
  0
LINE
  5
36C
330
3A1
100
AcDbEntity
  8
0
100
AcDbLine
 10
177.055
 20
-237.604
 30
0.0
 11
179.101
 21
-240.363
 31
0.0
  0
LINE
  5
36D
330
3A1
100
AcDbEntity
  8
0
100
AcDbLine
 10
179.101
 20
-240.363
 30
0.0
 11
180.867
 21
-243.309
 31
0.0
  0
LINE
  5
36E
330
3A1
100
AcDbEntity
  8
0
100
AcDbLine
 10
180.867
 20
-243.309
 30
0.0
 11
182.336
 21
-246.414
 31
0.0
  0
LINE
  5
36F
330
3A1
100
AcDbEntity
  8
0
100
AcDbLine
 10
182.336
 20
-246.414
 30
0.0
 11
183.493
 21
-249.648
 31
0.0
  0
LINE
  5
370
330
3A1
100
AcDbEntity
  8
0
100
AcDbLine
 10
183.493
 20
-249.648
 30
0.0
 11
184.327
 21
-252.979
 31
0.0
  0
LINE
  5
371
330
3A1
100
AcDbEntity
  8
0
100
AcDbLine
 10
184.327
 20
-252.979
 30
0.0
 11
184.831
 21
-256.377
 31
0.0
  0
LINE
  5
372
330
3A1
100
AcDbEntity
  8
0
100
AcDbLine
 10
184.831
 20
-256.377
 30
0.0
 11
185.0
 21
-259.808
 31
0.0
  0
LINE
  5
373
330
3A1
100
AcDbEntity
  8
0
100
AcDbLine
 10
185.0
 20
-259.808
 30
0.0
 11
184.831
 21
-263.238
 31
0.0
  0
LINE
  5
374
330
3A1
100
AcDbEntity
  8
0
100
AcDbLine
 10
184.831
 20
-263.238
 30
0.0
 11
184.327
 21
-266.636
 31
0.0
  0
LINE
  5
375
330
3A1
100
AcDbEntity
  8
0
100
AcDbLine
 10
184.327
 20
-266.636
 30
0.0
 11
183.493
 21
-269.968
 31
0.0
  0
LINE
  5
376
330
3A1
100
AcDbEntity
  8
0
100
AcDbLine
 10
183.493
 20
-269.968
 30
0.0
 11
182.336
 21
-273.202
 31
0.0
  0
LINE
  5
377
330
3A1
100
AcDbEntity
  8
0
100
AcDbLine
 10
182.336
 20
-273.202
 30
0.0
 11
180.867
 21
-276.307
 31
0.0
  0
LINE
  5
378
330
3A1
100
AcDbEntity
  8
0
100
AcDbLine
 10
180.867
 20
-276.307
 30
0.0
 11
179.101
 21
-279.253
 31
0.0
  0
LINE
  5
379
330
3A1
100
AcDbEntity
  8
0
100
AcDbLine
 10
179.101
 20
-279.253
 30
0.0
 11
177.055
 21
-282.011
 31
0.0
  0
LINE
  5
37A
330
3A1
100
AcDbEntity
  8
0
100
AcDbLine
 10
177.055
 20
-282.011
 30
0.0
 11
174.749
 21
-284.556
 31
0.0
  0
LINE
  5
37B
330
3A1
100
AcDbEntity
  8
0
100
AcDbLine
 10
174.749
 20
-284.556
 30
0.0
 11
172.204
 21
-286.863
 31
0.0
  0
LINE
  5
37C
330
3A1
100
AcDbEntity
  8
0
100
AcDbLine
 10
172.204
 20
-286.863
 30
0.0
 11
169.445
 21
-288.909
 31
0.0
  0
LINE
  5
37D
330
3A1
100
AcDbEntity
  8
0
100
AcDbLine
 10
169.445
 20
-288.909
 30
0.0
 11
166.499
 21
-290.675
 31
0.0
  0
LINE
  5
37E
330
3A1
100
AcDbEntity
  8
0
100
AcDbLine
 10
166.499
 20
-290.675
 30
0.0
 11
163.394
 21
-292.143
 31
0.0
  0
LINE
  5
37F
330
3A1
100
AcDbEntity
  8
0
100
AcDbLine
 10
163.394
 20
-292.143
 30
0.0
 11
160.16
 21
-293.301
 31
0.0
  0
LINE
  5
380
330
3A1
100
AcDbEntity
  8
0
100
AcDbLine
 10
160.16
 20
-293.301
 30
0.0
 11
156.828
 21
-294.135
 31
0.0
  0
LINE
  5
381
330
3A1
100
AcDbEntity
  8
0
100
AcDbLine
 10
156.828
 20
-294.135
 30
0.0
 11
153.431
 21
-294.639
 31
0.0
  0
LINE
  5
382
330
3A1
100
AcDbEntity
  8
0
100
AcDbLine
 10
153.431
 20
-294.639
 30
0.0
 11
150.0
 21
-294.808
 31
0.0
  0
LINE
  5
383
330
3A1
100
AcDbEntity
  8
0
100
AcDbLine
 10
150.0
 20
-294.808
 30
0.0
 11
146.569
 21
-294.639
 31
0.0
  0
VIEWPORT
  5
460
330
39D
100
AcDbEntity
 67
     1
  8
0
100
AcDbViewport
 10
128.5
 20
97.5
 30
0.0
 40
314.226
 41
222.18
 68
     1
 69
     1
 12
128.5
 22
97.5
 13
0.0
 23
0.0
 14
10.0
 24
10.0
 15
10.0
 25
10.0
 16
0.0
 26
0.0
 36
1.0
 17
0.0
 27
0.0
 37
0.0
 42
50.0
 43
0.0
 44
0.0
 45
222.18
 50
0.0
 51
0.0
 72
   100
 90
   557152
  1

281
     0
 71
     1
 74
     0
110
0.0
120
0.0
130
0.0
111
1.0
121
0.0
131
0.0
112
0.0
122
1.0
132
0.0
 79
     0
146
0.0
170
     0
 61
     5
348
3B1
292
     1
282
     1
141
0.0
142
0.0
 63
   256
361
461
  0
ENDSEC
  0
SECTION
  2
OBJECTS
  0
DICTIONARY
  5
38F
330
0
100
AcDbDictionary
281
     1
  3
ACAD_DETAILVIEWSTYLE
350
499
  3
ACAD_GROUP
350
390
  3
ACAD_LAYOUT
350
39C
  3
ACAD_MATERIAL
350
3C5
  3
ACAD_MLEADERSTYLE
350
3ED
  3
ACAD_MLINESTYLE
350
399
  3
ACAD_PLOTSETTINGS
350
39B
  3
ACAD_PLOTSTYLENAME
350
391
  3
ACAD_SCALELIST
350
3C9
  3
ACAD_SECTIONVIEWSTYLE
350
49A
  3
ACAD_TABLESTYLE
350
3EB
  3
ACAD_VISUALSTYLE
350
3AC
  3
ACDB_RECOMPOSE_DATA
350
496
  3
AcDbVariableDictionary
350
462
  3
QCAD_OBJECTS
350
3F1
  0
SUN
  5
3EF
330
3AB
100
AcDbSun
 90
        1
290
     0
 63
     7
421
 16777215
 40
1.0
291
     1
 91
  2455826
 92
 54000000
292
     0
 70
     2
 71
   256
280
     1
  0
SUN
  5
461
330
460
100
AcDbSun
 90
        1
290
     0
 63
     7
421
 16777215
 40
1.0
291
     1
 91
  2455826
 92
 54000000
292
     0
 70
     2
 71
   256
280
     1
  0
DICTIONARY
  5
499
102
{ACAD_REACTORS
330
38F
102
}
330
38F
100
AcDbDictionary
281
     1
  0
DICTIONARY
  5
390
102
{ACAD_REACTORS
330
38F
102
}
330
38F
100
AcDbDictionary
281
     1
  0
DICTIONARY
  5
39C
102
{ACAD_REACTORS
330
38F
102
}
330
38F
100
AcDbDictionary
281
     1
  3
Layout1
350
3A0
  3
Model
350
3A4
  0
DICTIONARY
  5
3C5
102
{ACAD_REACTORS
330
38F
102
}
330
38F
100
AcDbDictionary
281
     1
  3
ByBlock
350
3C7
  3
ByLayer
350
3C6
  3
Global
350
3C8
  0
DICTIONARY
  5
3ED
102
{ACAD_REACTORS
330
38F
102
}
330
38F
100
AcDbDictionary
281
     1
  3
Standard
350
3EE
  0
DICTIONARY
  5
399
102
{ACAD_REACTORS
330
38F
102
}
330
38F
100
AcDbDictionary
281
     1
  3
Standard
350
39A
  0
DICTIONARY
  5
39B
102
{ACAD_REACTORS
330
38F
102
}
330
38F
100
AcDbDictionary
281
     1
  0
ACDBDICTIONARYWDFLT
  5
391
102
{ACAD_REACTORS
330
38F
102
}
330
38F
100
AcDbDictionary
281
     1
  3
Normal
350
392
100
AcDbDictionaryWithDefault
340
392
  0
DICTIONARY
  5
3C9
102
{ACAD_REACTORS
330
38F
102
}
330
38F
100
AcDbDictionary
281
     1
  3
A0
350
3CA
  3
A1
350
3CB
  3
A2
350
3CC
  3
A3
350
3CD
  3
A4
350
3CE
  3
A5
350
3CF
  3
A6
350
3D0
  3
A7
350
3D1
  3
A8
350
3D2
  3
A9
350
3D3
  3
B0
350
3D4
  3
B1
350
3D5
  3
B2
350
3D6
  3
B3
350
3D7
  3
B4
350
3D8
  3
B5
350
3D9
  3
B6
350
3DA
  3
B7
350
3DB
  3
B8
350
3DC
  3
B9
350
3DD
  3
C0
350
3DE
  3
C1
350
3DF
  3
C2
350
3E0
  3
C3
350
3E1
  3
C4
350
3E2
  3
C5
350
3E3
  3
C6
350
3E4
  3
C7
350
3E5
  3
C8
350
3E6
  3
C9
350
3E7
  3
D0
350
3E8
  3
D1
350
3E9
  3
D2
350
3EA
  0
DICTIONARY
  5
49A
102
{ACAD_REACTORS
330
38F
102
}
330
38F
100
AcDbDictionary
281
     1
  0
DICTIONARY
  5
3EB
102
{ACAD_REACTORS
330
38F
102
}
330
38F
100
AcDbDictionary
281
     1
  3
Standard
350
3EC
  0
DICTIONARY
  5
3AC
102
{ACAD_REACTORS
330
38F
102
}
330
38F
100
AcDbDictionary
281
     1
  3
2dWireframe
350
3B1
  3
Basic
350
3B4
  3
Brighten
350
3B8
  3
ColorChange
350
3BC
  3
Conceptual
350
3B6
  3
Dim
350
3B7
  3
EdgeColorOff
350
3BF
  3
Facepattern
350
3BB
  3
Flat
350
3AD
  3
FlatWithEdges
350
3AE
  3
Gouraud
350
3AF
  3
GouraudWithEdges
350
3B0
  3
Hidden
350
3B3
  3
JitterOff
350
3BD
  3
Linepattern
350
3BA
  3
OverhangOff
350
3BE
  3
Realistic
350
3B5
  3
Shaded
350
3C4
  3
Shaded with edges
350
3C3
  3
Shades of Gray
350
3C0
  3
Sketchy
350
3C1
  3
Thicken
350
3B9
  3
Wireframe
350
3B2
  3
X-Ray
350
3C2
  0
XRECORD
  5
496
102
{ACAD_REACTORS
330
38F
102
}
330
38F
100
AcDbXrecord
280
     1
 90
        1
330
3EC
  0
DICTIONARY
  5
462
102
{ACAD_REACTORS
330
38F
102
}
330
38F
100
AcDbDictionary
281
     1
  3
CANNOSCALE
350
463
  3
CMLEADERSTYLE
350
498
  3
CTABLESTYLE
350
497
  0
DICTIONARY
  5
3F1
102
{ACAD_REACTORS
330
38F
102
}
330
38F
100
AcDbDictionary
281
     1
  3
ColorSettings/BackgroundColor
350
3F3
  3
ColorSettings/ColorMode
350
3F4
  3
Grid/DisplayGrid00
350
3F5
  3
Grid/DisplayGrid01
350
3F6
  3
Grid/DisplayGrid02
350
3F7
  3
Grid/DisplayGrid03
350
3F8
  3
Grid/GridSpacingX00
350
3F9
  3
Grid/GridSpacingX01
350
3FA
  3
Grid/GridSpacingX02
350
3FB
  3
Grid/GridSpacingX03
350
3FC
  3
Grid/GridSpacingY00
350
3FD
  3
Grid/GridSpacingY01
350
3FE
  3
Grid/GridSpacingY02
350
3FF
  3
Grid/GridSpacingY03
350
400
  3
Grid/IsometricGrid00
350
401
  3
Grid/IsometricGrid01
350
402
  3
Grid/IsometricGrid02
350
403
  3
Grid/IsometricGrid03
350
404
  3
Grid/IsometricProjection00
350
405
  3
Grid/IsometricProjection01
350
406
  3
Grid/IsometricProjection02
350
407
  3
Grid/IsometricProjection03
350
408
  3
Grid/MetaGridSpacingX00
350
409
  3
Grid/MetaGridSpacingX01
350
40A
  3
Grid/MetaGridSpacingX02
350
40B
  3
Grid/MetaGridSpacingX03
350
40C
  3
Grid/MetaGridSpacingY00
350
40D
  3
Grid/MetaGridSpacingY01
350
40E
  3
Grid/MetaGridSpacingY02
350
40F
  3
Grid/MetaGridSpacingY03
350
410
  3
MultiPageSettings/Columns
350
411
  3
MultiPageSettings/GlueMarginsBottom
350
412
  3
MultiPageSettings/GlueMarginsLeft
350
413
  3
MultiPageSettings/GlueMarginsRight
350
414
  3
MultiPageSettings/GlueMarginsTop
350
415
  3
MultiPageSettings/PrintCropMarks
350
416
  3
MultiPageSettings/Rows
350
417
  3
PageSettings/OffsetX
350
418
  3
PageSettings/OffsetY
350
419
  3
PageSettings/PageOrientation
350
41A
  3
PageSettings/PaperHeight
350
41B
  3
PageSettings/PaperWidth
350
41C
  3
PageSettings/Scale
350
41D
  3
PageSettings/ShowPaperBorders
350
41E
  3
PageTagSettings/EnablePageTags
350
41F
  3
PageTagSettings/TagAlignment
350
420
  3
PageTagSettings/TagFont
350
421
  3
PageTagSettings/TagPosition
350
422
  3
QCADVersion
350
423
  3
UnitSettings/PaperUnit
350
424
  0
LAYOUT
  5
3A0
102
{ACAD_REACTORS
330
39C
102
}
330
39C
100
AcDbPlotSettings
  1

  2
none_device
  4
ISO_A4_(210.00_x_297.00_MM)
  6

 40
7.5
 41
20.0
 42
7.5
 43
20.0
 44
210.0
 45
297.0
 46
0.0
 47
0.0
 48
0.0
 49
0.0
140
0.0
141
0.0
142
1.0
143
1.0
 70
   688
 72
     1
 73
     1
 74
     5
  7

 75
     0
 76
     0
 77
     2
 78
   300
147
1.0
148
0.0
149
0.0
100
AcDbLayout
  1
Layout1
 70
     1
 71
     0
 10
-20.0
 20
-7.5
 11
277.0
 21
202.5
 12
0.0
 22
0.0
 32
0.0
 14
0.0
 24
0.0
 34
0.0
 15
0.0
 25
0.0
 35
0.0
146
0.0
 13
0.0
 23
0.0
 33
0.0
 16
1.0
 26
0.0
 36
0.0
 17
0.0
 27
1.0
 37
0.0
 76
     0
330
39D
331
460
  0
LAYOUT
  5
3A4
102
{ACAD_REACTORS
330
39C
102
}
330
39C
100
AcDbPlotSettings
  1

  2
none_device
  4
Letter_(8.50_x_11.00_Inches)
  6

 40
6.35
 41
6.35
 42
6.35000508
 43
6.35000508
 44
215.9
 45
279.4
 46
0.0
 47
0.0
 48
0.0
 49
0.0
140
0.0
141
0.0
142
1.0
143
1.0
 70
  1712
 72
     0
 73
     0
 74
     0
  7

 75
     0
 76
     0
 77
     2
 78
   300
147
1.0
148
0.0
149
0.0
100
AcDbLayout
  1
Model
 70
     1
 71
     0
 10
0.0
 20
0.0
 11
12.0
 21
9.0
 12
0.0
 22
0.0
 32
0.0
 14
-375.0
 24
-334.808
 34
0.0
 15
375.0
 25
334.808
 35
0.0
146
0.0
 13
0.0
 23
0.0
 33
0.0
 16
1.0
 26
0.0
 36
0.0
 17
0.0
 27
1.0
 37
0.0
 76
     0
330
3A1
331
3AB
  0
MATERIAL
  5
3C7
102
{ACAD_REACTORS
330
3C5
102
}
330
3C5
100
AcDbMaterial
  1
ByBlock
 72
     1
 94
      127
  0
MATERIAL
  5
3C6
102
{ACAD_REACTORS
330
3C5
102
}
330
3C5
100
AcDbMaterial
  1
ByLayer
 72
     1
 94
      127
  0
MATERIAL
  5
3C8
102
{ACAD_REACTORS
330
3C5
102
}
330
3C5
100
AcDbMaterial
  1
Global
 72
     1
 94
      127
  0
MLEADERSTYLE
  5
3EE
102
{ACAD_REACTORS
330
3ED
102
}
330
3ED
100
AcDbMLeaderStyle
179
     2
170
     2
171
     1
172
     0
 90
        2
 40
0.0
 41
0.0
173
     1
 91
-1056964608
340
396
 92
       -2
290
     1
 42
0.09
291
     1
 43
0.36
  3
Standard
341
0
 44
0.18
300

342
394
174
     1
178
     6
175
     1
176
     0
 93
-1056964608
 45
0.18
292
     0
297
     0
 46
0.18
343
0
 94
-1056964608
 47
1.0
 49
1.0
140
1.0
293
     1
141
0.0
294
     1
177
     0
142
1.0
295
     0
296
     0
143
0.125
271
     0
272
     9
273
     9
  0
MLINESTYLE
  5
39A
102
{ACAD_REACTORS
330
399
102
}
330
399
100
AcDbMlineStyle
  2
Standard
 70
     0
  3

 62
   256
 51
90.0
 52
90.0
 71
     2
 49
0.5
 62
   256
  6
BYLAYER
 49
-0.5
 62
   256
  6
BYLAYER
  0
ACDBPLACEHOLDER
  5
392
102
{ACAD_REACTORS
330
391
102
}
330
391
  0
SCALE
  5
3CA
102
{ACAD_REACTORS
330
3C9
102
}
330
3C9
100
AcDbScale
 70
     0
300
1:1
140
1.0
141
1.0
290
     1
  0
SCALE
  5
3CB
102
{ACAD_REACTORS
330
3C9
102
}
330
3C9
100
AcDbScale
 70
     0
300
1:2
140
1.0
141
2.0
290
     0
  0
SCALE
  5
3CC
102
{ACAD_REACTORS
330
3C9
102
}
330
3C9
100
AcDbScale
 70
     0
300
1:4
140
1.0
141
4.0
290
     0
  0
SCALE
  5
3CD
102
{ACAD_REACTORS
330
3C9
102
}
330
3C9
100
AcDbScale
 70
     0
300
1:5
140
1.0
141
5.0
290
     0
  0
SCALE
  5
3CE
102
{ACAD_REACTORS
330
3C9
102
}
330
3C9
100
AcDbScale
 70
     0
300
1:8
140
1.0
141
8.0
290
     0
  0
SCALE
  5
3CF
102
{ACAD_REACTORS
330
3C9
102
}
330
3C9
100
AcDbScale
 70
     0
300
1:10
140
1.0
141
10.0
290
     0
  0
SCALE
  5
3D0
102
{ACAD_REACTORS
330
3C9
102
}
330
3C9
100
AcDbScale
 70
     0
300
1:16
140
1.0
141
16.0
290
     0
  0
SCALE
  5
3D1
102
{ACAD_REACTORS
330
3C9
102
}
330
3C9
100
AcDbScale
 70
     0
300
1:20
140
1.0
141
20.0
290
     0
  0
SCALE
  5
3D2
102
{ACAD_REACTORS
330
3C9
102
}
330
3C9
100
AcDbScale
 70
     0
300
1:30
140
1.0
141
30.0
290
     0
  0
SCALE
  5
3D3
102
{ACAD_REACTORS
330
3C9
102
}
330
3C9
100
AcDbScale
 70
     0
300
1:40
140
1.0
141
40.0
290
     0
  0
SCALE
  5
3D4
102
{ACAD_REACTORS
330
3C9
102
}
330
3C9
100
AcDbScale
 70
     0
300
1:50
140
1.0
141
50.0
290
     0
  0
SCALE
  5
3D5
102
{ACAD_REACTORS
330
3C9
102
}
330
3C9
100
AcDbScale
 70
     0
300
1:100
140
1.0
141
100.0
290
     0
  0
SCALE
  5
3D6
102
{ACAD_REACTORS
330
3C9
102
}
330
3C9
100
AcDbScale
 70
     0
300
2:1
140
2.0
141
1.0
290
     0
  0
SCALE
  5
3D7
102
{ACAD_REACTORS
330
3C9
102
}
330
3C9
100
AcDbScale
 70
     0
300
4:1
140
4.0
141
1.0
290
     0
  0
SCALE
  5
3D8
102
{ACAD_REACTORS
330
3C9
102
}
330
3C9
100
AcDbScale
 70
     0
300
8:1
140
8.0
141
1.0
290
     0
  0
SCALE
  5
3D9
102
{ACAD_REACTORS
330
3C9
102
}
330
3C9
100
AcDbScale
 70
     0
300
10:1
140
10.0
141
1.0
290
     0
  0
SCALE
  5
3DA
102
{ACAD_REACTORS
330
3C9
102
}
330
3C9
100
AcDbScale
 70
     0
300
100:1
140
100.0
141
1.0
290
     0
  0
SCALE
  5
3DB
102
{ACAD_REACTORS
330
3C9
102
}
330
3C9
100
AcDbScale
 70
     0
300
1/128" = 1'-0"
140
0.0078125
141
12.0
290
     0
  0
SCALE
  5
3DC
102
{ACAD_REACTORS
330
3C9
102
}
330
3C9
100
AcDbScale
 70
     0
300
1/64" = 1'-0"
140
0.015625
141
12.0
290
     0
  0
SCALE
  5
3DD
102
{ACAD_REACTORS
330
3C9
102
}
330
3C9
100
AcDbScale
 70
     0
300
1/32" = 1'-0"
140
0.03125
141
12.0
290
     0
  0
SCALE
  5
3DE
102
{ACAD_REACTORS
330
3C9
102
}
330
3C9
100
AcDbScale
 70
     0
300
1/16" = 1'-0"
140
0.0625
141
12.0
290
     0
  0
SCALE
  5
3DF
102
{ACAD_REACTORS
330
3C9
102
}
330
3C9
100
AcDbScale
 70
     0
300
3/32" = 1'-0"
140
0.09375
141
12.0
290
     0
  0
SCALE
  5
3E0
102
{ACAD_REACTORS
330
3C9
102
}
330
3C9
100
AcDbScale
 70
     0
300
1/8" = 1'-0"
140
0.125
141
12.0
290
     0
  0
SCALE
  5
3E1
102
{ACAD_REACTORS
330
3C9
102
}
330
3C9
100
AcDbScale
 70
     0
300
3/16" = 1'-0"
140
0.1875
141
12.0
290
     0
  0
SCALE
  5
3E2
102
{ACAD_REACTORS
330
3C9
102
}
330
3C9
100
AcDbScale
 70
     0
300
1/4" = 1'-0"
140
0.25
141
12.0
290
     0
  0
SCALE
  5
3E3
102
{ACAD_REACTORS
330
3C9
102
}
330
3C9
100
AcDbScale
 70
     0
300
3/8" = 1'-0"
140
0.375
141
12.0
290
     0
  0
SCALE
  5
3E4
102
{ACAD_REACTORS
330
3C9
102
}
330
3C9
100
AcDbScale
 70
     0
300
1/2" = 1'-0"
140
0.5
141
12.0
290
     0
  0
SCALE
  5
3E5
102
{ACAD_REACTORS
330
3C9
102
}
330
3C9
100
AcDbScale
 70
     0
300
3/4" = 1'-0"
140
0.75
141
12.0
290
     0
  0
SCALE
  5
3E6
102
{ACAD_REACTORS
330
3C9
102
}
330
3C9
100
AcDbScale
 70
     0
300
1" = 1'-0"
140
1.0
141
12.0
290
     0
  0
SCALE
  5
3E7
102
{ACAD_REACTORS
330
3C9
102
}
330
3C9
100
AcDbScale
 70
     0
300
1-1/2" = 1'-0"
140
1.5
141
12.0
290
     0
  0
SCALE
  5
3E8
102
{ACAD_REACTORS
330
3C9
102
}
330
3C9
100
AcDbScale
 70
     0
300
3" = 1'-0"
140
3.0
141
12.0
290
     0
  0
SCALE
  5
3E9
102
{ACAD_REACTORS
330
3C9
102
}
330
3C9
100
AcDbScale
 70
     0
300
6" = 1'-0"
140
6.0
141
12.0
290
     0
  0
SCALE
  5
3EA
102
{ACAD_REACTORS
330
3C9
102
}
330
3C9
100
AcDbScale
 70
     0
300
1'-0" = 1'-0"
140
12.0
141
12.0
290
     0
  0
TABLESTYLE
  5
3EC
102
{ACAD_REACTORS
330
3EB
102
}
102
{ACAD_XDICTIONARY
360
494
102
}
330
3EB
100
AcDbTableStyle
  3
Standard
 70
     0
 71
     0
 40
0.06
 41
0.06
280
     0
281
     0
  7
Standard
140
0.18
170
     2
 62
     0
 63
   257
283
     0
 90
        4
 91
        0
  1

274
    -2
284
     1
 64
     0
275
    -2
285
     1
 65
     0
276
    -2
286
     1
 66
     0
277
    -2
287
     1
 67
     0
278
    -2
288
     1
 68
     0
279
    -2
289
     1
 69
     0
  7
Standard
140
0.25
170
     5
 62
     0
 63
   257
283
     0
 90
        4
 91
        0
  1

274
    -2
284
     1
 64
     0
275
    -2
285
     1
 65
     0
276
    -2
286
     1
 66
     0
277
    -2
287
     1
 67
     0
278
    -2
288
     1
 68
     0
279
    -2
289
     1
 69
     0
  7
Standard
140
0.18
170
     5
 62
     0
 63
   257
283
     0
 90
        4
 91
        0
  1

274
    -2
284
     1
 64
     0
275
    -2
285
     1
 65
     0
276
    -2
286
     1
 66
     0
277
    -2
287
     1
 67
     0
278
    -2
288
     1
 68
     0
279
    -2
289
     1
 69
     0
  0
VISUALSTYLE
  5
3B1
102
{ACAD_REACTORS
330
3AC
102
}
102
{ACAD_XDICTIONARY
360
46C
102
}
330
3AC
100
AcDbVisualStyle
  2
2dWireframe
 70
     4
177
     2
291
     0
 71
     0
176
     1
 72
     2
176
     1
 73
     0
176
     1
 90
        0
176
     1
 40
0.6
176
     1
 41
30.0
176
     1
 62
     5
 63
     7
421
 16777215
176
     1
 74
     1
176
     1
 91
        4
176
     1
 64
     7
176
     1
 65
   257
176
     1
 75
     1
176
     1
175
     1
176
     1
 42
1.0
176
     1
 92
        0
176
     1
 66
   257
176
     1
 43
1.0
176
     1
 76
     1
176
     1
 77
     6
176
     1
 78
     2
176
     1
 67
     7
176
     1
 79
     5
176
     1
170
     0
176
     1
171
     0
176
     1
290
     0
176
     1
 93
        1
176
     1
 44
0.0
176
     1
173
     0
176
     1
  0
VISUALSTYLE
  5
3B4
102
{ACAD_REACTORS
330
3AC
102
}
102
{ACAD_XDICTIONARY
360
472
102
}
330
3AC
100
AcDbVisualStyle
  2
Basic
 70
     7
177
     2
291
     1
 71
     1
176
     1
 72
     0
176
     1
 73
     1
176
     1
 90
        0
176
     1
 40
0.6
176
     1
 41
30.0
176
     1
 62
     5
 63
     7
421
 16777215
176
     1
 74
     0
176
     1
 91
        4
176
     1
 64
     7
176
     1
 65
   257
176
     1
 75
     1
176
     1
175
     1
176
     1
 42
1.0
176
     1
 92
        8
176
     1
 66
     7
176
     1
 43
1.0
176
     1
 76
     1
176
     1
 77
     6
176
     1
 78
     2
176
     1
 67
     7
176
     1
 79
     5
176
     1
170
     0
176
     1
171
     0
176
     1
290
     0
176
     1
 93
        1
176
     1
 44
0.0
176
     1
173
     0
176
     1
  0
VISUALSTYLE
  5
3B8
102
{ACAD_REACTORS
330
3AC
102
}
102
{ACAD_XDICTIONARY
360
47A
102
}
330
3AC
100
AcDbVisualStyle
  2
Brighten
 70
    12
177
     2
291
     1
 71
     2
176
     1
 72
     2
176
     1
 73
     0
176
     1
 90
        0
176
     1
 40
0.6
176
     1
 41
30.0
176
     1
 62
     5
 63
     7
421
 16777215
176
     1
 74
     1
176
     1
 91
        4
176
     1
 64
     7
176
     1
 65
   257
176
     1
 75
     1
176
     1
175
     1
176
     1
 42
1.0
176
     1
 92
        8
176
     1
 66
     7
176
     1
 43
1.0
176
     1
 76
     1
176
     1
 77
     6
176
     1
 78
     2
176
     1
 67
     7
176
     1
 79
     5
176
     1
170
     0
176
     1
171
     0
176
     1
290
     0
176
     1
 93
        1
176
     1
 44
50.0
176
     1
173
     0
176
     1
  0
VISUALSTYLE
  5
3BC
102
{ACAD_REACTORS
330
3AC
102
}
102
{ACAD_XDICTIONARY
360
482
102
}
330
3AC
100
AcDbVisualStyle
  2
ColorChange
 70
    16
177
     2
291
     1
 71
     2
176
     1
 72
     2
176
     1
 73
     3
176
     1
 90
        0
176
     1
 40
0.6
176
     1
 41
30.0
176
     1
 62
     5
 63
     8
421
  8421504
176
     1
 74
     1
176
     1
 91
        4
176
     1
 64
     7
176
     1
 65
   257
176
     1
 75
     1
176
     1
175
     1
176
     1
 42
1.0
176
     1
 92
        8
176
     1
 66
     8
424
  8421504
176
     1
 43
1.0
176
     1
 76
     1
176
     1
 77
     6
176
     1
 78
     2
176
     1
 67
     7
176
     1
 79
     5
176
     1
170
     0
176
     1
171
     0
176
     1
290
     0
176
     1
 93
        1
176
     1
 44
0.0
176
     1
173
     0
176
     1
  0
VISUALSTYLE
  5
3B6
102
{ACAD_REACTORS
330
3AC
102
}
102
{ACAD_XDICTIONARY
360
476
102
}
330
3AC
100
AcDbVisualStyle
  2
Conceptual
 70
     9
177
     2
291
     0
 71
     3
176
     1
 72
     2
176
     1
 73
     0
176
     1
 90
        0
176
     1
 40
0.6
176
     1
 41
30.0
176
     1
 62
     5
 63
     7
421
 16777215
176
     1
 74
     2
176
     1
 91
        2
176
     1
 64
     7
176
     1
 65
   257
176
     1
 75
     1
176
     1
175
     1
176
     1
 42
179.0
176
     1
 92
        8
176
     1
 66
     7
176
     1
 43
1.0
176
     1
 76
     1
176
     1
 77
     6
176
     1
 78
     2
176
     1
 67
     7
176
     1
 79
     3
176
     1
170
     0
176
     1
171
     0
176
     1
290
     0
176
     1
 93
        1
176
     1
 44
0.0
176
     1
173
     0
176
     1
  0
VISUALSTYLE
  5
3B7
102
{ACAD_REACTORS
330
3AC
102
}
102
{ACAD_XDICTIONARY
360
478
102
}
330
3AC
100
AcDbVisualStyle
  2
Dim
 70
    11
177
     2
291
     1
 71
     2
176
     1
 72
     2
176
     1
 73
     0
176
     1
 90
        0
176
     1
 40
0.6
176
     1
 41
30.0
176
     1
 62
     5
 63
     7
421
 16777215
176
     1
 74
     1
176
     1
 91
        4
176
     1
 64
     7
176
     1
 65
   257
176
     1
 75
     1
176
     1
175
     1
176
     1
 42
1.0
176
     1
 92
        8
176
     1
 66
     7
176
     1
 43
1.0
176
     1
 76
     1
176
     1
 77
     6
176
     1
 78
     2
176
     1
 67
     7
176
     1
 79
     5
176
     1
170
     0
176
     1
171
     0
176
     1
290
     0
176
     1
 93
        1
176
     1
 44
-50.0
176
     1
173
     0
176
     1
  0
VISUALSTYLE
  5
3BF
102
{ACAD_REACTORS
330
3AC
102
}
102
{ACAD_XDICTIONARY
360
488
102
}
330
3AC
100
AcDbVisualStyle
  2
EdgeColorOff
 70
    22
177
     2
291
     1
 71
     2
176
     0
 72
     2
176
     0
 73
     0
176
     0
 90
        0
176
     0
 40
0.6
176
     0
 41
30.0
176
     0
 62
     5
 63
     7
421
 16777215
176
     0
 74
     1
176
     0
 91
        4
176
     0
 64
     7
176
     0
 65
   257
176
     0
 75
     1
176
     0
175
     1
176
     0
 42
1.0
176
     0
 92
        8
176
     2
 66
     7
176
     0
 43
1.0
176
     0
 76
     1
176
     0
 77
     6
176
     0
 78
     2
176
     0
 67
     7
176
     0
 79
     5
176
     0
170
     0
176
     0
171
     0
176
     0
290
     0
176
     0
 93
        1
176
     0
 44
0.0
176
     0
173
     0
176
     0
  0
VISUALSTYLE
  5
3BB
102
{ACAD_REACTORS
330
3AC
102
}
102
{ACAD_XDICTIONARY
360
480
102
}
330
3AC
100
AcDbVisualStyle
  2
Facepattern
 70
    15
177
     2
291
     1
 71
     2
176
     1
 72
     2
176
     1
 73
     0
176
     1
 90
        0
176
     1
 40
0.6
176
     1
 41
30.0
176
     1
 62
     5
 63
     7
421
 16777215
176
     1
 74
     1
176
     1
 91
        4
176
     1
 64
     7
176
     1
 65
   257
176
     1
 75
     1
176
     1
175
     1
176
     1
 42
1.0
176
     1
 92
        8
176
     1
 66
     7
176
     1
 43
1.0
176
     1
 76
     1
176
     1
 77
     6
176
     1
 78
     2
176
     1
 67
     7
176
     1
 79
     5
176
     1
170
     0
176
     1
171
     0
176
     1
290
     0
176
     1
 93
        1
176
     1
 44
0.0
176
     1
173
     0
176
     1
  0
VISUALSTYLE
  5
3AD
102
{ACAD_REACTORS
330
3AC
102
}
102
{ACAD_XDICTIONARY
360
464
102
}
330
3AC
100
AcDbVisualStyle
  2
Flat
 70
     0
177
     2
291
     1
 71
     2
176
     1
 72
     1
176
     1
 73
     1
176
     1
 90
        2
176
     1
 40
0.6
176
     1
 41
30.0
176
     1
 62
     5
 63
     7
421
 16777215
176
     1
 74
     0
176
     1
 91
        0
176
     1
 64
     7
176
     1
 65
   257
176
     1
 75
     1
176
     1
175
     1
176
     1
 42
1.0
176
     1
 92
        8
176
     1
 66
     7
176
     1
 43
1.0
176
     1
 76
     1
176
     1
 77
     6
176
     1
 78
     2
176
     1
 67
     7
176
     1
 79
     5
176
     1
170
     0
176
     1
171
     0
176
     1
290
     0
176
     1
 93
       13
176
     1
 44
0.0
176
     1
173
     0
176
     1
  0
VISUALSTYLE
  5
3AE
102
{ACAD_REACTORS
330
3AC
102
}
102
{ACAD_XDICTIONARY
360
466
102
}
330
3AC
100
AcDbVisualStyle
  2
FlatWithEdges
 70
     1
177
     2
291
     1
 71
     2
176
     1
 72
     1
176
     1
 73
     1
176
     1
 90
        2
176
     1
 40
0.6
176
     1
 41
30.0
176
     1
 62
     5
 63
     7
421
 16777215
176
     1
 74
     1
176
     1
 91
        0
176
     1
 64
     7
176
     1
 65
   257
176
     1
 75
     1
176
     1
175
     1
176
     1
 42
1.0
176
     1
 92
        0
176
     1
 66
   257
176
     1
 43
1.0
176
     1
 76
     1
176
     1
 77
     6
176
     1
 78
     2
176
     1
 67
     7
176
     1
 79
     5
176
     1
170
     0
176
     1
171
     0
176
     1
290
     0
176
     1
 93
       13
176
     1
 44
0.0
176
     1
173
     0
176
     1
  0
VISUALSTYLE
  5
3AF
102
{ACAD_REACTORS
330
3AC
102
}
102
{ACAD_XDICTIONARY
360
468
102
}
330
3AC
100
AcDbVisualStyle
  2
Gouraud
 70
     2
177
     2
291
     1
 71
     2
176
     1
 72
     2
176
     1
 73
     1
176
     1
 90
        2
176
     1
 40
0.6
176
     1
 41
30.0
176
     1
 62
     5
 63
     7
421
 16777215
176
     1
 74
     0
176
     1
 91
        0
176
     1
 64
     7
176
     1
 65
   257
176
     1
 75
     1
176
     1
175
     1
176
     1
 42
1.0
176
     1
 92
        0
176
     1
 66
     7
176
     1
 43
1.0
176
     1
 76
     1
176
     1
 77
     6
176
     1
 78
     2
176
     1
 67
     7
176
     1
 79
     5
176
     1
170
     0
176
     1
171
     0
176
     1
290
     0
176
     1
 93
       13
176
     1
 44
0.0
176
     1
173
     0
176
     1
  0
VISUALSTYLE
  5
3B0
102
{ACAD_REACTORS
330
3AC
102
}
102
{ACAD_XDICTIONARY
360
46A
102
}
330
3AC
100
AcDbVisualStyle
  2
GouraudWithEdges
 70
     3
177
     2
291
     1
 71
     2
176
     1
 72
     2
176
     1
 73
     1
176
     1
 90
        2
176
     1
 40
0.6
176
     1
 41
30.0
176
     1
 62
     5
 63
     7
421
 16777215
176
     1
 74
     1
176
     1
 91
        0
176
     1
 64
     7
176
     1
 65
   257
176
     1
 75
     1
176
     1
175
     1
176
     1
 42
1.0
176
     1
 92
        0
176
     1
 66
   257
176
     1
 43
1.0
176
     1
 76
     1
176
     1
 77
     6
176
     1
 78
     2
176
     1
 67
     7
176
     1
 79
     5
176
     1
170
     0
176
     1
171
     0
176
     1
290
     0
176
     1
 93
       13
176
     1
 44
0.0
176
     1
173
     0
176
     1
  0
VISUALSTYLE
  5
3B3
102
{ACAD_REACTORS
330
3AC
102
}
102
{ACAD_XDICTIONARY
360
470
102
}
330
3AC
100
AcDbVisualStyle
  2
Hidden
 70
     6
177
     2
291
     0
 71
     1
176
     1
 72
     2
176
     1
 73
     2
176
     1
 90
        0
176
     1
 40
0.6
176
     1
 41
30.0
176
     1
 62
     5
 63
     7
421
 16777215
176
     1
 74
     2
176
     1
 91
        2
176
     1
 64
     7
176
     1
 65
   257
176
     1
 75
     2
176
     1
175
     1
176
     1
 42
40.0
176
     1
 92
        0
176
     1
 66
   257
176
     1
 43
1.0
176
     1
 76
     1
176
     1
 77
     6
176
     1
 78
     2
176
     1
 67
     7
176
     1
 79
     3
176
     1
170
     0
176
     1
171
     0
176
     1
290
     0
176
     1
 93
        1
176
     1
 44
0.0
176
     1
173
     0
176
     1
  0
VISUALSTYLE
  5
3BD
102
{ACAD_REACTORS
330
3AC
102
}
102
{ACAD_XDICTIONARY
360
484
102
}
330
3AC
100
AcDbVisualStyle
  2
JitterOff
 70
    20
177
     2
291
     1
 71
     2
176
     0
 72
     2
176
     0
 73
     0
176
     0
 90
        0
176
     0
 40
0.6
176
     0
 41
30.0
176
     0
 62
     5
 63
     7
421
 16777215
176
     0
 74
     1
176
     0
 91
        4
176
     0
 64
     7
176
     0
 65
   257
176
     0
 75
     1
176
     0
175
     1
176
     0
 42
1.0
176
     0
 92
       10
176
     2
 66
     7
176
     0
 43
1.0
176
     0
 76
     1
176
     0
 77
     6
176
     0
 78
     2
176
     0
 67
     7
176
     0
 79
     5
176
     0
170
     0
176
     0
171
     0
176
     0
290
     0
176
     0
 93
        1
176
     0
 44
0.0
176
     0
173
     0
176
     0
  0
VISUALSTYLE
  5
3BA
102
{ACAD_REACTORS
330
3AC
102
}
102
{ACAD_XDICTIONARY
360
47E
102
}
330
3AC
100
AcDbVisualStyle
  2
Linepattern
 70
    14
177
     2
291
     1
 71
     2
176
     1
 72
     2
176
     1
 73
     0
176
     1
 90
        0
176
     1
 40
0.6
176
     1
 41
30.0
176
     1
 62
     5
 63
     7
421
 16777215
176
     1
 74
     1
176
     1
 91
        4
176
     1
 64
     7
176
     1
 65
   257
176
     1
 75
     7
176
     1
175
     7
176
     1
 42
1.0
176
     1
 92
        8
176
     1
 66
     7
176
     1
 43
1.0
176
     1
 76
     1
176
     1
 77
     6
176
     1
 78
     2
176
     1
 67
     7
176
     1
 79
     5
176
     1
170
     0
176
     1
171
     0
176
     1
290
     0
176
     1
 93
        1
176
     1
 44
0.0
176
     1
173
     0
176
     1
  0
VISUALSTYLE
  5
3BE
102
{ACAD_REACTORS
330
3AC
102
}
102
{ACAD_XDICTIONARY
360
486
102
}
330
3AC
100
AcDbVisualStyle
  2
OverhangOff
 70
    21
177
     2
291
     1
 71
     2
176
     0
 72
     2
176
     0
 73
     0
176
     0
 90
        0
176
     0
 40
0.6
176
     0
 41
30.0
176
     0
 62
     5
 63
     7
421
 16777215
176
     0
 74
     1
176
     0
 91
        4
176
     0
 64
     7
176
     0
 65
   257
176
     0
 75
     1
176
     0
175
     1
176
     0
 42
1.0
176
     0
 92
        9
176
     2
 66
     7
176
     0
 43
1.0
176
     0
 76
     1
176
     0
 77
     6
176
     0
 78
     2
176
     0
 67
     7
176
     0
 79
     5
176
     0
170
     0
176
     0
171
     0
176
     0
290
     0
176
     0
 93
        1
176
     0
 44
0.0
176
     0
173
     0
176
     0
  0
VISUALSTYLE
  5
3B5
102
{ACAD_REACTORS
330
3AC
102
}
102
{ACAD_XDICTIONARY
360
474
102
}
330
3AC
100
AcDbVisualStyle
  2
Realistic
 70
     8
177
     2
291
     0
 71
     2
176
     1
 72
     3
176
     1
 73
     0
176
     1
 90
        2
176
     1
 40
0.6
176
     1
 41
30.0
176
     1
 62
     5
 63
     7
421
 16777215
176
     1
 74
     0
176
     1
 91
        0
176
     1
 64
     7
176
     1
 65
   257
176
     1
 75
     1
176
     1
175
     1
176
     1
 42
1.0
176
     1
 92
        8
176
     1
 66
   257
176
     1
 43
1.0
176
     1
 76
     1
176
     1
 77
     6
176
     1
 78
     2
176
     1
 67
     7
176
     1
 79
     3
176
     1
170
     0
176
     1
171
     0
176
     1
290
     0
176
     1
 93
       13
176
     1
 44
0.0
176
     1
173
     0
176
     1
  0
VISUALSTYLE
  5
3C4
102
{ACAD_REACTORS
330
3AC
102
}
102
{ACAD_XDICTIONARY
360
492
102
}
330
3AC
100
AcDbVisualStyle
  2
Shaded
 70
    27
177
     2
291
     0
 71
     2
176
     1
 72
     2
176
     1
 73
     1
176
     1
 90
        2
176
     1
 40
0.6
176
     1
 41
30.0
176
     1
 62
     5
 63
     7
421
 16777215
176
     1
 74
     0
176
     1
 91
        4
176
     1
 64
     7
176
     1
 65
   257
176
     1
 75
     1
176
     1
175
     1
176
     1
 42
1.0
176
     1
 92
        8
176
     1
 66
   257
176
     1
 43
1.0
176
     1
 76
     1
176
     1
 77
     6
176
     1
 78
     2
176
     1
 67
     8
425
  7895160
176
     1
 79
     3
176
     1
170
     0
176
     1
171
     0
176
     1
290
     0
176
     1
 93
        5
176
     1
 44
0.0
176
     1
173
     0
176
     1
  0
VISUALSTYLE
  5
3C3
102
{ACAD_REACTORS
330
3AC
102
}
102
{ACAD_XDICTIONARY
360
490
102
}
330
3AC
100
AcDbVisualStyle
  2
Shaded with edges
 70
    26
177
     2
291
     0
 71
     2
176
     1
 72
     2
176
     1
 73
     1
176
     1
 90
        2
176
     1
 40
0.6
176
     1
 41
30.0
176
     1
 62
     5
 63
     7
421
 16777215
176
     1
 74
     1
176
     1
 91
       10
176
     1
 64
     7
176
     1
 65
   257
176
     1
 75
     2
176
     1
175
     1
176
     1
 42
1.0
176
     1
 92
        8
176
     1
 66
   257
176
     1
 43
1.0
176
     1
 76
     1
176
     1
 77
     6
176
     1
 78
     2
176
     1
 67
     7
176
     1
 79
     3
176
     1
170
     0
176
     1
171
     0
176
     1
290
     0
176
     1
 93
        5
176
     1
 44
0.0
176
     1
173
     0
176
     1
  0
VISUALSTYLE
  5
3C0
102
{ACAD_REACTORS
330
3AC
102
}
102
{ACAD_XDICTIONARY
360
48A
102
}
330
3AC
100
AcDbVisualStyle
  2
Shades of Gray
 70
    23
177
     2
291
     0
 71
     2
176
     1
 72
     2
176
     1
 73
     3
176
     1
 90
        0
176
     1
 40
0.6
176
     1
 41
30.0
176
     1
 62
     5
 63
     7
421
 16777215
176
     1
 74
     2
176
     1
 91
        2
176
     1
 64
     7
176
     1
 65
     7
176
     1
 75
     1
176
     1
175
     1
176
     1
 42
40.0
176
     1
 92
        8
176
     1
 66
     7
176
     1
 43
1.0
176
     1
 76
     1
176
     1
 77
     6
176
     1
 78
     2
176
     1
 67
     7
176
     1
 79
     3
176
     1
170
     0
176
     1
171
     0
176
     1
290
     0
176
     1
 93
        1
176
     1
 44
0.0
176
     1
173
     0
176
     1
  0
VISUALSTYLE
  5
3C1
102
{ACAD_REACTORS
330
3AC
102
}
102
{ACAD_XDICTIONARY
360
48C
102
}
330
3AC
100
AcDbVisualStyle
  2
Sketchy
 70
    24
177
     2
291
     0
 71
     1
176
     1
 72
     2
176
     1
 73
     2
176
     1
 90
        0
176
     1
 40
0.6
176
     1
 41
30.0
176
     1
 62
     5
 63
     7
421
 16777215
176
     1
 74
     2
176
     1
 91
        2
176
     1
 64
     7
176
     1
 65
     7
176
     1
 75
     1
176
     1
175
     1
176
     1
 42
40.0
176
     1
 92
       11
176
     1
 66
     7
176
     1
 43
1.0
176
     1
 76
     1
176
     1
 77
     6
176
     1
 78
     2
176
     1
 67
     7
176
     1
 79
     6
176
     1
170
     0
176
     1
171
     0
176
     1
290
     0
176
     1
 93
        1
176
     1
 44
0.0
176
     1
173
     0
176
     1
  0
VISUALSTYLE
  5
3B9
102
{ACAD_REACTORS
330
3AC
102
}
102
{ACAD_XDICTIONARY
360
47C
102
}
330
3AC
100
AcDbVisualStyle
  2
Thicken
 70
    13
177
     2
291
     1
 71
     2
176
     1
 72
     2
176
     1
 73
     0
176
     1
 90
        0
176
     1
 40
0.6
176
     1
 41
30.0
176
     1
 62
     5
 63
     7
421
 16777215
176
     1
 74
     1
176
     1
 91
        4
176
     1
 64
     7
176
     1
 65
   257
176
     1
 75
     1
176
     1
175
     1
176
     1
 42
1.0
176
     1
 92
       12
176
     1
 66
     7
176
     1
 43
1.0
176
     1
 76
     1
176
     1
 77
     6
176
     1
 78
     2
176
     1
 67
     7
176
     1
 79
     5
176
     1
170
     0
176
     1
171
     0
176
     1
290
     0
176
     1
 93
        1
176
     1
 44
0.0
176
     1
173
     0
176
     1
  0
VISUALSTYLE
  5
3B2
102
{ACAD_REACTORS
330
3AC
102
}
102
{ACAD_XDICTIONARY
360
46E
102
}
330
3AC
100
AcDbVisualStyle
  2
Wireframe
 70
     5
177
     2
291
     0
 71
     0
176
     1
 72
     2
176
     1
 73
     0
176
     1
 90
        0
176
     1
 40
0.6
176
     1
 41
30.0
176
     1
 62
     5
 63
     7
421
 16777215
176
     1
 74
     1
176
     1
 91
        4
176
     1
 64
     7
176
     1
 65
   257
176
     1
 75
     1
176
     1
175
     1
176
     1
 42
1.0
176
     1
 92
        0
176
     1
 66
   257
176
     1
 43
1.0
176
     1
 76
     1
176
     1
 77
     6
176
     1
 78
     2
176
     1
 67
     7
176
     1
 79
     3
176
     1
170
     0
176
     1
171
     0
176
     1
290
     0
176
     1
 93
        1
176
     1
 44
0.0
176
     1
173
     0
176
     1
  0
VISUALSTYLE
  5
3C2
102
{ACAD_REACTORS
330
3AC
102
}
102
{ACAD_XDICTIONARY
360
48E
102
}
330
3AC
100
AcDbVisualStyle
  2
X-Ray
 70
    25
177
     2
291
     0
 71
     2
176
     1
 72
     2
176
     1
 73
     1
176
     1
 90
        1
176
     1
 40
0.5
176
     1
 41
30.0
176
     1
 62
     5
 63
     7
421
 16777215
176
     1
 74
     1
176
     1
 91
        0
176
     1
 64
     7
176
     1
 65
   257
176
     1
 75
     1
176
     1
175
     1
176
     1
 42
1.0
176
     1
 92
        8
176
     1
 66
     7
176
     1
 43
1.0
176
     1
 76
     1
176
     1
 77
     6
176
     1
 78
     2
176
     1
 67
     7
176
     1
 79
     3
176
     1
170
     0
176
     1
171
     0
176
     1
290
     0
176
     1
 93
       13
176
     1
 44
0.0
176
     1
173
     0
176
     1
  0
DICTIONARYVAR
  5
463
102
{ACAD_REACTORS
330
462
102
}
330
462
100
DictionaryVariables
280
     0
  1
1:1
  0
DICTIONARYVAR
  5
498
102
{ACAD_REACTORS
330
462
102
}
330
462
100
DictionaryVariables
280
     0
  1
Standard
  0
DICTIONARYVAR
  5
497
102
{ACAD_REACTORS
330
462
102
}
330
462
100
DictionaryVariables
280
     0
  1
Standard
  0
XRECORD
  5
3F3
102
{ACAD_REACTORS
330
3F1
102
}
330
3F1
100
AcDbXrecord
280
     1
1000
#ffffff
  0
XRECORD
  5
3F4
102
{ACAD_REACTORS
330
3F1
102
}
330
3F1
100
AcDbXrecord
280
     1
1000
FullColor
  0
XRECORD
  5
3F5
102
{ACAD_REACTORS
330
3F1
102
}
330
3F1
100
AcDbXrecord
280
     1
290
     1
  0
XRECORD
  5
3F6
102
{ACAD_REACTORS
330
3F1
102
}
330
3F1
100
AcDbXrecord
280
     1
290
     1
  0
XRECORD
  5
3F7
102
{ACAD_REACTORS
330
3F1
102
}
330
3F1
100
AcDbXrecord
280
     1
290
     1
  0
XRECORD
  5
3F8
102
{ACAD_REACTORS
330
3F1
102
}
330
3F1
100
AcDbXrecord
280
     1
290
     1
  0
XRECORD
  5
3F9
102
{ACAD_REACTORS
330
3F1
102
}
330
3F1
100
AcDbXrecord
280
     1
1000
auto
  0
XRECORD
  5
3FA
102
{ACAD_REACTORS
330
3F1
102
}
330
3F1
100
AcDbXrecord
280
     1
1000
auto
  0
XRECORD
  5
3FB
102
{ACAD_REACTORS
330
3F1
102
}
330
3F1
100
AcDbXrecord
280
     1
1000
auto
  0
XRECORD
  5
3FC
102
{ACAD_REACTORS
330
3F1
102
}
330
3F1
100
AcDbXrecord
280
     1
1000
auto
  0
XRECORD
  5
3FD
102
{ACAD_REACTORS
330
3F1
102
}
330
3F1
100
AcDbXrecord
280
     1
1000
auto
  0
XRECORD
  5
3FE
102
{ACAD_REACTORS
330
3F1
102
}
330
3F1
100
AcDbXrecord
280
     1
1000
auto
  0
XRECORD
  5
3FF
102
{ACAD_REACTORS
330
3F1
102
}
330
3F1
100
AcDbXrecord
280
     1
1000
auto
  0
XRECORD
  5
400
102
{ACAD_REACTORS
330
3F1
102
}
330
3F1
100
AcDbXrecord
280
     1
1000
auto
  0
XRECORD
  5
401
102
{ACAD_REACTORS
330
3F1
102
}
330
3F1
100
AcDbXrecord
280
     1
290
     0
  0
XRECORD
  5
402
102
{ACAD_REACTORS
330
3F1
102
}
330
3F1
100
AcDbXrecord
280
     1
290
     0
  0
XRECORD
  5
403
102
{ACAD_REACTORS
330
3F1
102
}
330
3F1
100
AcDbXrecord
280
     1
290
     0
  0
XRECORD
  5
404
102
{ACAD_REACTORS
330
3F1
102
}
330
3F1
100
AcDbXrecord
280
     1
290
     0
  0
XRECORD
  5
405
102
{ACAD_REACTORS
330
3F1
102
}
330
3F1
100
AcDbXrecord
280
     1
 90
    65537
  0
XRECORD
  5
406
102
{ACAD_REACTORS
330
3F1
102
}
330
3F1
100
AcDbXrecord
280
     1
 90
    65537
  0
XRECORD
  5
407
102
{ACAD_REACTORS
330
3F1
102
}
330
3F1
100
AcDbXrecord
280
     1
 90
    65537
  0
XRECORD
  5
408
102
{ACAD_REACTORS
330
3F1
102
}
330
3F1
100
AcDbXrecord
280
     1
 90
    65537
  0
XRECORD
  5
409
102
{ACAD_REACTORS
330
3F1
102
}
330
3F1
100
AcDbXrecord
280
     1
1000
auto
  0
XRECORD
  5
40A
102
{ACAD_REACTORS
330
3F1
102
}
330
3F1
100
AcDbXrecord
280
     1
1000
auto
  0
XRECORD
  5
40B
102
{ACAD_REACTORS
330
3F1
102
}
330
3F1
100
AcDbXrecord
280
     1
1000
auto
  0
XRECORD
  5
40C
102
{ACAD_REACTORS
330
3F1
102
}
330
3F1
100
AcDbXrecord
280
     1
1000
auto
  0
XRECORD
  5
40D
102
{ACAD_REACTORS
330
3F1
102
}
330
3F1
100
AcDbXrecord
280
     1
1000
auto
  0
XRECORD
  5
40E
102
{ACAD_REACTORS
330
3F1
102
}
330
3F1
100
AcDbXrecord
280
     1
1000
auto
  0
XRECORD
  5
40F
102
{ACAD_REACTORS
330
3F1
102
}
330
3F1
100
AcDbXrecord
280
     1
1000
auto
  0
XRECORD
  5
410
102
{ACAD_REACTORS
330
3F1
102
}
330
3F1
100
AcDbXrecord
280
     1
1000
auto
  0
XRECORD
  5
411
102
{ACAD_REACTORS
330
3F1
102
}
330
3F1
100
AcDbXrecord
280
     1
 90
        1
  0
XRECORD
  5
412
102
{ACAD_REACTORS
330
3F1
102
}
330
3F1
100
AcDbXrecord
280
     1
 40
0.0
  0
XRECORD
  5
413
102
{ACAD_REACTORS
330
3F1
102
}
330
3F1
100
AcDbXrecord
280
     1
 40
0.0
  0
XRECORD
  5
414
102
{ACAD_REACTORS
330
3F1
102
}
330
3F1
100
AcDbXrecord
280
     1
 40
0.0
  0
XRECORD
  5
415
102
{ACAD_REACTORS
330
3F1
102
}
330
3F1
100
AcDbXrecord
280
     1
 40
0.0
  0
XRECORD
  5
416
102
{ACAD_REACTORS
330
3F1
102
}
330
3F1
100
AcDbXrecord
280
     1
290
     0
  0
XRECORD
  5
417
102
{ACAD_REACTORS
330
3F1
102
}
330
3F1
100
AcDbXrecord
280
     1
 90
        1
  0
XRECORD
  5
418
102
{ACAD_REACTORS
330
3F1
102
}
330
3F1
100
AcDbXrecord
280
     1
 40
0.0
  0
XRECORD
  5
419
102
{ACAD_REACTORS
330
3F1
102
}
330
3F1
100
AcDbXrecord
280
     1
 40
0.0
  0
XRECORD
  5
41A
102
{ACAD_REACTORS
330
3F1
102
}
330
3F1
100
AcDbXrecord
280
     1
1000
Portrait
  0
XRECORD
  5
41B
102
{ACAD_REACTORS
330
3F1
102
}
330
3F1
100
AcDbXrecord
280
     1
 40
297.0
  0
XRECORD
  5
41C
102
{ACAD_REACTORS
330
3F1
102
}
330
3F1
100
AcDbXrecord
280
     1
 40
210.0
  0
XRECORD
  5
41D
102
{ACAD_REACTORS
330
3F1
102
}
330
3F1
100
AcDbXrecord
280
     1
1000
1:1
  0
XRECORD
  5
41E
102
{ACAD_REACTORS
330
3F1
102
}
330
3F1
100
AcDbXrecord
280
     1
290
     1
  0
XRECORD
  5
41F
102
{ACAD_REACTORS
330
3F1
102
}
330
3F1
100
AcDbXrecord
280
     1
290
     0
  0
XRECORD
  5
420
102
{ACAD_REACTORS
330
3F1
102
}
330
3F1
100
AcDbXrecord
280
     1
1000
Inside
  0
XRECORD
  5
421
102
{ACAD_REACTORS
330
3F1
102
}
330
3F1
100
AcDbXrecord
280
     1
1000
Arial,10,-1,5,50,0,0,0,0,0
  0
XRECORD
  5
422
102
{ACAD_REACTORS
330
3F1
102
}
330
3F1
100
AcDbXrecord
280
     1
1000
TopLeft
  0
XRECORD
  5
423
102
{ACAD_REACTORS
330
3F1
102
}
330
3F1
100
AcDbXrecord
280
     1
1000
3.25.1
  0
XRECORD
  5
424
102
{ACAD_REACTORS
330
3F1
102
}
330
3F1
100
AcDbXrecord
280
     1
 90
        4
  0
DICTIONARY
  5
494
330
3EC
100
AcDbDictionary
280
     1
281
     1
  3
ACAD_ROUNDTRIP_2008_TABLESTYLE_CELLSTYLEMAP
360
495
  0
DICTIONARY
  5
46C
330
3B1
100
AcDbDictionary
280
     1
281
     1
  3
ACAD_XREC_ROUNDTRIP
360
46D
  0
DICTIONARY
  5
472
330
3B4
100
AcDbDictionary
280
     1
281
     1
  3
ACAD_XREC_ROUNDTRIP
360
473
  0
DICTIONARY
  5
47A
330
3B8
100
AcDbDictionary
280
     1
281
     1
  3
ACAD_XREC_ROUNDTRIP
360
47B
  0
DICTIONARY
  5
482
330
3BC
100
AcDbDictionary
280
     1
281
     1
  3
ACAD_XREC_ROUNDTRIP
360
483
  0
DICTIONARY
  5
476
330
3B6
100
AcDbDictionary
280
     1
281
     1
  3
ACAD_XREC_ROUNDTRIP
360
477
  0
DICTIONARY
  5
478
330
3B7
100
AcDbDictionary
280
     1
281
     1
  3
ACAD_XREC_ROUNDTRIP
360
479
  0
DICTIONARY
  5
488
330
3BF
100
AcDbDictionary
280
     1
281
     1
  3
ACAD_XREC_ROUNDTRIP
360
489
  0
DICTIONARY
  5
480
330
3BB
100
AcDbDictionary
280
     1
281
     1
  3
ACAD_XREC_ROUNDTRIP
360
481
  0
DICTIONARY
  5
464
330
3AD
100
AcDbDictionary
280
     1
281
     1
  3
ACAD_XREC_ROUNDTRIP
360
465
  0
DICTIONARY
  5
466
330
3AE
100
AcDbDictionary
280
     1
281
     1
  3
ACAD_XREC_ROUNDTRIP
360
467
  0
DICTIONARY
  5
468
330
3AF
100
AcDbDictionary
280
     1
281
     1
  3
ACAD_XREC_ROUNDTRIP
360
469
  0
DICTIONARY
  5
46A
330
3B0
100
AcDbDictionary
280
     1
281
     1
  3
ACAD_XREC_ROUNDTRIP
360
46B
  0
DICTIONARY
  5
470
330
3B3
100
AcDbDictionary
280
     1
281
     1
  3
ACAD_XREC_ROUNDTRIP
360
471
  0
DICTIONARY
  5
484
330
3BD
100
AcDbDictionary
280
     1
281
     1
  3
ACAD_XREC_ROUNDTRIP
360
485
  0
DICTIONARY
  5
47E
330
3BA
100
AcDbDictionary
280
     1
281
     1
  3
ACAD_XREC_ROUNDTRIP
360
47F
  0
DICTIONARY
  5
486
330
3BE
100
AcDbDictionary
280
     1
281
     1
  3
ACAD_XREC_ROUNDTRIP
360
487
  0
DICTIONARY
  5
474
330
3B5
100
AcDbDictionary
280
     1
281
     1
  3
ACAD_XREC_ROUNDTRIP
360
475
  0
DICTIONARY
  5
492
330
3C4
100
AcDbDictionary
280
     1
281
     1
  3
ACAD_XREC_ROUNDTRIP
360
493
  0
DICTIONARY
  5
490
330
3C3
100
AcDbDictionary
280
     1
281
     1
  3
ACAD_XREC_ROUNDTRIP
360
491
  0
DICTIONARY
  5
48A
330
3C0
100
AcDbDictionary
280
     1
281
     1
  3
ACAD_XREC_ROUNDTRIP
360
48B
  0
DICTIONARY
  5
48C
330
3C1
100
AcDbDictionary
280
     1
281
     1
  3
ACAD_XREC_ROUNDTRIP
360
48D
  0
DICTIONARY
  5
47C
330
3B9
100
AcDbDictionary
280
     1
281
     1
  3
ACAD_XREC_ROUNDTRIP
360
47D
  0
DICTIONARY
  5
46E
330
3B2
100
AcDbDictionary
280
     1
281
     1
  3
ACAD_XREC_ROUNDTRIP
360
46F
  0
DICTIONARY
  5
48E
330
3C2
100
AcDbDictionary
280
     1
281
     1
  3
ACAD_XREC_ROUNDTRIP
360
48F
  0
CELLSTYLEMAP
  5
495
102
{ACAD_REACTORS
330
494
102
}
330
494
100
AcDbCellStyleMap
 90
        3
300
CELLSTYLE
  1
TABLEFORMAT_BEGIN
 90
        5
170
     1
 91
        0
 92
    32768
 62
   257
 93
        1
300
CONTENTFORMAT
  1
CONTENTFORMAT_BEGIN
 90
        0
 91
        0
 92
        4
 93
        0
300

 40
0.0
140
1.0
 94
        5
 62
     0
340
394
144
0.25
309
CONTENTFORMAT_END
171
     1
301
MARGIN
  1
CELLMARGIN_BEGIN
 40
0.06
 40
0.06
 40
0.06
 40
0.06
 40
0.06
 40
0.06
309
CELLMARGIN_END
 94
        6
 95
        1
302
GRIDFORMAT
  1
GRIDFORMAT_BEGIN
 90
        0
 91
        1
 62
     0
 92
       -2
340
396
 93
        0
 40
0.045
309
GRIDFORMAT_END
 95
        2
302
GRIDFORMAT
  1
GRIDFORMAT_BEGIN
 90
        0
 91
        1
 62
     0
 92
       -2
340
396
 93
        0
 40
0.045
309
GRIDFORMAT_END
 95
        4
302
GRIDFORMAT
  1
GRIDFORMAT_BEGIN
 90
        0
 91
        1
 62
     0
 92
       -2
340
396
 93
        0
 40
0.045
309
GRIDFORMAT_END
 95
        8
302
GRIDFORMAT
  1
GRIDFORMAT_BEGIN
 90
        0
 91
        1
 62
     0
 92
       -2
340
396
 93
        0
 40
0.045
309
GRIDFORMAT_END
 95
       16
302
GRIDFORMAT
  1
GRIDFORMAT_BEGIN
 90
        0
 91
        1
 62
     0
 92
       -2
340
396
 93
        0
 40
0.045
309
GRIDFORMAT_END
 95
       32
302
GRIDFORMAT
  1
GRIDFORMAT_BEGIN
 90
        0
 91
        1
 62
     0
 92
       -2
340
396
 93
        0
 40
0.045
309
GRIDFORMAT_END
309
TABLEFORMAT_END
  1
CELLSTYLE_BEGIN
 90
        1
 91
        1
300
_TITLE
309
CELLSTYLE_END
300
CELLSTYLE
  1
TABLEFORMAT_BEGIN
 90
        5
170
     1
 91
        0
 92
        0
 62
   257
 93
        1
300
CONTENTFORMAT
  1
CONTENTFORMAT_BEGIN
 90
        0
 91
        0
 92
        4
 93
        0
300

 40
0.0
140
1.0
 94
        5
 62
     0
340
394
144
0.18
309
CONTENTFORMAT_END
171
     1
301
MARGIN
  1
CELLMARGIN_BEGIN
 40
0.06
 40
0.06
 40
0.06
 40
0.06
 40
0.06
 40
0.06
309
CELLMARGIN_END
 94
        6
 95
        1
302
GRIDFORMAT
  1
GRIDFORMAT_BEGIN
 90
        0
 91
        1
 62
     0
 92
       -2
340
396
 93
        0
 40
0.045
309
GRIDFORMAT_END
 95
        2
302
GRIDFORMAT
  1
GRIDFORMAT_BEGIN
 90
        0
 91
        1
 62
     0
 92
       -2
340
396
 93
        0
 40
0.045
309
GRIDFORMAT_END
 95
        4
302
GRIDFORMAT
  1
GRIDFORMAT_BEGIN
 90
        0
 91
        1
 62
     0
 92
       -2
340
396
 93
        0
 40
0.045
309
GRIDFORMAT_END
 95
        8
302
GRIDFORMAT
  1
GRIDFORMAT_BEGIN
 90
        0
 91
        1
 62
     0
 92
       -2
340
396
 93
        0
 40
0.045
309
GRIDFORMAT_END
 95
       16
302
GRIDFORMAT
  1
GRIDFORMAT_BEGIN
 90
        0
 91
        1
 62
     0
 92
       -2
340
396
 93
        0
 40
0.045
309
GRIDFORMAT_END
 95
       32
302
GRIDFORMAT
  1
GRIDFORMAT_BEGIN
 90
        0
 91
        1
 62
     0
 92
       -2
340
396
 93
        0
 40
0.045
309
GRIDFORMAT_END
309
TABLEFORMAT_END
  1
CELLSTYLE_BEGIN
 90
        2
 91
        1
300
_HEADER
309
CELLSTYLE_END
300
CELLSTYLE
  1
TABLEFORMAT_BEGIN
 90
        5
170
     1
 91
        0
 92
        0
 62
   257
 93
        1
300
CONTENTFORMAT
  1
CONTENTFORMAT_BEGIN
 90
        0
 91
        0
 92
        4
 93
        0
300

 40
0.0
140
1.0
 94
        2
 62
     0
340
394
144
0.18
309
CONTENTFORMAT_END
171
     1
301
MARGIN
  1
CELLMARGIN_BEGIN
 40
0.06
 40
0.06
 40
0.06
 40
0.06
 40
0.06
 40
0.06
309
CELLMARGIN_END
 94
        6
 95
        1
302
GRIDFORMAT
  1
GRIDFORMAT_BEGIN
 90
        0
 91
        1
 62
     0
 92
       -2
340
396
 93
        0
 40
0.045
309
GRIDFORMAT_END
 95
        2
302
GRIDFORMAT
  1
GRIDFORMAT_BEGIN
 90
        0
 91
        1
 62
     0
 92
       -2
340
396
 93
        0
 40
0.045
309
GRIDFORMAT_END
 95
        4
302
GRIDFORMAT
  1
GRIDFORMAT_BEGIN
 90
        0
 91
        1
 62
     0
 92
       -2
340
396
 93
        0
 40
0.045
309
GRIDFORMAT_END
 95
        8
302
GRIDFORMAT
  1
GRIDFORMAT_BEGIN
 90
        0
 91
        1
 62
     0
 92
       -2
340
396
 93
        0
 40
0.045
309
GRIDFORMAT_END
 95
       16
302
GRIDFORMAT
  1
GRIDFORMAT_BEGIN
 90
        0
 91
        1
 62
     0
 92
       -2
340
396
 93
        0
 40
0.045
309
GRIDFORMAT_END
 95
       32
302
GRIDFORMAT
  1
GRIDFORMAT_BEGIN
 90
        0
 91
        1
 62
     0
 92
       -2
340
396
 93
        0
 40
0.045
309
GRIDFORMAT_END
309
TABLEFORMAT_END
  1
CELLSTYLE_BEGIN
 90
        3
 91
        2
300
_DATA
309
CELLSTYLE_END
  0
XRECORD
  5
46D
102
{ACAD_REACTORS
330
46C
102
}
330
46C
100
AcDbXrecord
280
     1
102
RTVSPost2010Prop28
280
     1
102
RTVSPost2010PropOp28
 70
     1
102
RTVSPost2010Prop29
280
     1
102
RTVSPost2010PropOp29
 70
     1
102
RTVSPost2010Prop30
280
     0
102
RTVSPost2010PropOp30
 70
     1
102
RTVSPost2010Prop31
280
     0
102
RTVSPost2010PropOp31
 70
     1
102
RTVSPost2010Prop32
280
     0
102
RTVSPost2010PropOp32
 70
     1
102
RTVSPost2010Prop33
280
     0
102
RTVSPost2010PropOp33
 70
     1
102
RTVSPost2010Prop34
280
     0
102
RTVSPost2010PropOp34
 70
     1
102
RTVSPost2010Prop35
280
     0
102
RTVSPost2010PropOp35
 70
     1
102
RTVSPost2010Prop36
280
     0
102
RTVSPost2010PropOp36
 70
     1
102
RTVSPost2010Prop37
 90
       50
102
RTVSPost2010PropOp37
 70
     1
102
RTVSPost2010Prop38
140
0.0
102
RTVSPost2010PropOp38
 70
     1
102
RTVSPost2010Prop39
140
1.0
102
RTVSPost2010PropOp39
 70
     1
102
RTVSPost2010Prop40
 90
        0
102
RTVSPost2010PropOp40
 70
     1
102
RTVSPost2010Prop41ColorIndex
 90
      178
102
RTVSPost2010Prop41ColorRGB
 90
        0
102
RTVSPost2010PropOp41
 70
     1
102
RTVSPost2010Prop42
 90
       50
102
RTVSPost2010PropOp42
 70
     1
102
RTVSPost2010Prop43
 90
        3
102
RTVSPost2010PropOp43
 70
     1
102
RTVSPost2010Prop44ColorIndex
 90
        5
102
RTVSPost2010Prop44ColorRGB
 90
      255
102
RTVSPost2010PropOp44
 70
     1
102
RTVSPost2010Prop45
280
     0
102
RTVSPost2010PropOp45
 70
     1
102
RTVSPost2010Prop46
 90
       50
102
RTVSPost2010PropOp46
 70
     1
102
RTVSPost2010Prop47
 90
       50
102
RTVSPost2010PropOp47
 70
     1
102
RTVSPost2010Prop48
 90
       50
102
RTVSPost2010PropOp48
 70
     1
102
RTVSPost2010Prop49
280
     0
102
RTVSPost2010PropOp49
 70
     1
102
RTVSPost2010Prop50
 90
       50
102
RTVSPost2010PropOp50
 70
     1
102
RTVSPost2010Prop51ColorIndex
 90
      256
102
RTVSPost2010Prop51ColorRGB
 90
-16777216
102
RTVSPost2010PropOp51
 70
     0
102
RTVSPost2010Prop52
140
1.0
102
RTVSPost2010PropOp52
 70
     0
102
RTVSPost2010Prop53
 90
        2
102
RTVSPost2010PropOp53
 70
     1
102
RTVSPost2010Prop54
  1
strokes_ogs.tif
102
RTVSPost2010PropOp54
 70
     1
102
RTVSPost2010Prop55
280
     0
102
RTVSPost2010PropOp55
 70
     1
102
RTVSPost2010Prop56
140
1.0
102
RTVSPost2010PropOp56
 70
     1
102
RTVSPost2010Prop57
140
1.0
102
RTVSPost2010PropOp57
 70
     1
  0
XRECORD
  5
473
102
{ACAD_REACTORS
330
472
102
}
330
472
100
AcDbXrecord
280
     1
102
RTVSPost2010Prop28
280
     0
102
RTVSPost2010PropOp28
 70
     1
102
RTVSPost2010Prop29
280
     1
102
RTVSPost2010PropOp29
 70
     1
102
RTVSPost2010Prop30
280
     1
102
RTVSPost2010PropOp30
 70
     1
102
RTVSPost2010Prop31
280
     0
102
RTVSPost2010PropOp31
 70
     1
102
RTVSPost2010Prop32
280
     0
102
RTVSPost2010PropOp32
 70
     1
102
RTVSPost2010Prop33
280
     0
102
RTVSPost2010PropOp33
 70
     1
102
RTVSPost2010Prop34
280
     0
102
RTVSPost2010PropOp34
 70
     1
102
RTVSPost2010Prop35
280
     0
102
RTVSPost2010PropOp35
 70
     1
102
RTVSPost2010Prop36
280
     0
102
RTVSPost2010PropOp36
 70
     1
102
RTVSPost2010Prop37
 90
       50
102
RTVSPost2010PropOp37
 70
     1
102
RTVSPost2010Prop38
140
0.0
102
RTVSPost2010PropOp38
 70
     1
102
RTVSPost2010Prop39
140
1.0
102
RTVSPost2010PropOp39
 70
     1
102
RTVSPost2010Prop40
 90
        0
102
RTVSPost2010PropOp40
 70
     1
102
RTVSPost2010Prop41ColorIndex
 90
      178
102
RTVSPost2010Prop41ColorRGB
 90
        0
102
RTVSPost2010PropOp41
 70
     1
102
RTVSPost2010Prop42
 90
       50
102
RTVSPost2010PropOp42
 70
     1
102
RTVSPost2010Prop43
 90
        3
102
RTVSPost2010PropOp43
 70
     1
102
RTVSPost2010Prop44ColorIndex
 90
        5
102
RTVSPost2010Prop44ColorRGB
 90
      255
102
RTVSPost2010PropOp44
 70
     1
102
RTVSPost2010Prop45
280
     0
102
RTVSPost2010PropOp45
 70
     1
102
RTVSPost2010Prop46
 90
       50
102
RTVSPost2010PropOp46
 70
     1
102
RTVSPost2010Prop47
 90
       50
102
RTVSPost2010PropOp47
 70
     1
102
RTVSPost2010Prop48
 90
       50
102
RTVSPost2010PropOp48
 70
     1
102
RTVSPost2010Prop49
280
     0
102
RTVSPost2010PropOp49
 70
     1
102
RTVSPost2010Prop50
 90
       50
102
RTVSPost2010PropOp50
 70
     1
102
RTVSPost2010Prop51ColorIndex
 90
      256
102
RTVSPost2010Prop51ColorRGB
 90
-16777216
102
RTVSPost2010PropOp51
 70
     0
102
RTVSPost2010Prop52
140
1.0
102
RTVSPost2010PropOp52
 70
     0
102
RTVSPost2010Prop53
 90
        2
102
RTVSPost2010PropOp53
 70
     1
102
RTVSPost2010Prop54
  1
strokes_ogs.tif
102
RTVSPost2010PropOp54
 70
     1
102
RTVSPost2010Prop55
280
     0
102
RTVSPost2010PropOp55
 70
     1
102
RTVSPost2010Prop56
140
1.0
102
RTVSPost2010PropOp56
 70
     1
102
RTVSPost2010Prop57
140
1.0
102
RTVSPost2010PropOp57
 70
     1
  0
XRECORD
  5
47B
102
{ACAD_REACTORS
330
47A
102
}
330
47A
100
AcDbXrecord
280
     1
102
RTVSPost2010Prop28
280
     0
102
RTVSPost2010PropOp28
 70
     1
102
RTVSPost2010Prop29
280
     1
102
RTVSPost2010PropOp29
 70
     1
102
RTVSPost2010Prop30
280
     1
102
RTVSPost2010PropOp30
 70
     1
102
RTVSPost2010Prop31
280
     0
102
RTVSPost2010PropOp31
 70
     1
102
RTVSPost2010Prop32
280
     0
102
RTVSPost2010PropOp32
 70
     1
102
RTVSPost2010Prop33
280
     0
102
RTVSPost2010PropOp33
 70
     1
102
RTVSPost2010Prop34
280
     0
102
RTVSPost2010PropOp34
 70
     1
102
RTVSPost2010Prop35
280
     0
102
RTVSPost2010PropOp35
 70
     1
102
RTVSPost2010Prop36
280
     0
102
RTVSPost2010PropOp36
 70
     1
102
RTVSPost2010Prop37
 90
       50
102
RTVSPost2010PropOp37
 70
     1
102
RTVSPost2010Prop38
140
0.0
102
RTVSPost2010PropOp38
 70
     1
102
RTVSPost2010Prop39
140
1.0
102
RTVSPost2010PropOp39
 70
     1
102
RTVSPost2010Prop40
 90
        0
102
RTVSPost2010PropOp40
 70
     1
102
RTVSPost2010Prop41ColorIndex
 90
      178
102
RTVSPost2010Prop41ColorRGB
 90
        0
102
RTVSPost2010PropOp41
 70
     1
102
RTVSPost2010Prop42
 90
       50
102
RTVSPost2010PropOp42
 70
     1
102
RTVSPost2010Prop43
 90
        3
102
RTVSPost2010PropOp43
 70
     1
102
RTVSPost2010Prop44ColorIndex
 90
        5
102
RTVSPost2010Prop44ColorRGB
 90
      255
102
RTVSPost2010PropOp44
 70
     1
102
RTVSPost2010Prop45
280
     0
102
RTVSPost2010PropOp45
 70
     1
102
RTVSPost2010Prop46
 90
       50
102
RTVSPost2010PropOp46
 70
     1
102
RTVSPost2010Prop47
 90
       50
102
RTVSPost2010PropOp47
 70
     1
102
RTVSPost2010Prop48
 90
       50
102
RTVSPost2010PropOp48
 70
     1
102
RTVSPost2010Prop49
280
     0
102
RTVSPost2010PropOp49
 70
     1
102
RTVSPost2010Prop50
 90
       50
102
RTVSPost2010PropOp50
 70
     1
102
RTVSPost2010Prop51ColorIndex
 90
      256
102
RTVSPost2010Prop51ColorRGB
 90
-16777216
102
RTVSPost2010PropOp51
 70
     0
102
RTVSPost2010Prop52
140
1.0
102
RTVSPost2010PropOp52
 70
     0
102
RTVSPost2010Prop53
 90
        2
102
RTVSPost2010PropOp53
 70
     1
102
RTVSPost2010Prop54
  1
strokes_ogs.tif
102
RTVSPost2010PropOp54
 70
     1
102
RTVSPost2010Prop55
280
     0
102
RTVSPost2010PropOp55
 70
     1
102
RTVSPost2010Prop56
140
1.0
102
RTVSPost2010PropOp56
 70
     1
102
RTVSPost2010Prop57
140
1.0
102
RTVSPost2010PropOp57
 70
     1
  0
XRECORD
  5
483
102
{ACAD_REACTORS
330
482
102
}
330
482
100
AcDbXrecord
280
     1
102
RTVSPost2010Prop28
280
     0
102
RTVSPost2010PropOp28
 70
     1
102
RTVSPost2010Prop29
280
     1
102
RTVSPost2010PropOp29
 70
     1
102
RTVSPost2010Prop30
280
     1
102
RTVSPost2010PropOp30
 70
     1
102
RTVSPost2010Prop31
280
     0
102
RTVSPost2010PropOp31
 70
     1
102
RTVSPost2010Prop32
280
     0
102
RTVSPost2010PropOp32
 70
     1
102
RTVSPost2010Prop33
280
     0
102
RTVSPost2010PropOp33
 70
     1
102
RTVSPost2010Prop34
280
     0
102
RTVSPost2010PropOp34
 70
     1
102
RTVSPost2010Prop35
280
     0
102
RTVSPost2010PropOp35
 70
     1
102
RTVSPost2010Prop36
280
     0
102
RTVSPost2010PropOp36
 70
     1
102
RTVSPost2010Prop37
 90
       50
102
RTVSPost2010PropOp37
 70
     1
102
RTVSPost2010Prop38
140
0.0
102
RTVSPost2010PropOp38
 70
     1
102
RTVSPost2010Prop39
140
1.0
102
RTVSPost2010PropOp39
 70
     1
102
RTVSPost2010Prop40
 90
        0
102
RTVSPost2010PropOp40
 70
     1
102
RTVSPost2010Prop41ColorIndex
 90
      178
102
RTVSPost2010Prop41ColorRGB
 90
        0
102
RTVSPost2010PropOp41
 70
     1
102
RTVSPost2010Prop42
 90
       50
102
RTVSPost2010PropOp42
 70
     1
102
RTVSPost2010Prop43
 90
        3
102
RTVSPost2010PropOp43
 70
     1
102
RTVSPost2010Prop44ColorIndex
 90
        5
102
RTVSPost2010Prop44ColorRGB
 90
      255
102
RTVSPost2010PropOp44
 70
     1
102
RTVSPost2010Prop45
280
     0
102
RTVSPost2010PropOp45
 70
     1
102
RTVSPost2010Prop46
 90
       50
102
RTVSPost2010PropOp46
 70
     1
102
RTVSPost2010Prop47
 90
       50
102
RTVSPost2010PropOp47
 70
     1
102
RTVSPost2010Prop48
 90
       50
102
RTVSPost2010PropOp48
 70
     1
102
RTVSPost2010Prop49
280
     0
102
RTVSPost2010PropOp49
 70
     1
102
RTVSPost2010Prop50
 90
       50
102
RTVSPost2010PropOp50
 70
     1
102
RTVSPost2010Prop51ColorIndex
 90
      256
102
RTVSPost2010Prop51ColorRGB
 90
-16777216
102
RTVSPost2010PropOp51
 70
     0
102
RTVSPost2010Prop52
140
1.0
102
RTVSPost2010PropOp52
 70
     0
102
RTVSPost2010Prop53
 90
        2
102
RTVSPost2010PropOp53
 70
     1
102
RTVSPost2010Prop54
  1
strokes_ogs.tif
102
RTVSPost2010PropOp54
 70
     1
102
RTVSPost2010Prop55
280
     0
102
RTVSPost2010PropOp55
 70
     1
102
RTVSPost2010Prop56
140
1.0
102
RTVSPost2010PropOp56
 70
     1
102
RTVSPost2010Prop57
140
1.0
102
RTVSPost2010PropOp57
 70
     1
  0
XRECORD
  5
477
102
{ACAD_REACTORS
330
476
102
}
330
476
100
AcDbXrecord
280
     1
102
RTVSPost2010Prop28
280
     0
102
RTVSPost2010PropOp28
 70
     1
102
RTVSPost2010Prop29
280
     1
102
RTVSPost2010PropOp29
 70
     1
102
RTVSPost2010Prop30
280
     1
102
RTVSPost2010PropOp30
 70
     1
102
RTVSPost2010Prop31
280
     0
102
RTVSPost2010PropOp31
 70
     1
102
RTVSPost2010Prop32
280
     0
102
RTVSPost2010PropOp32
 70
     1
102
RTVSPost2010Prop33
280
     0
102
RTVSPost2010PropOp33
 70
     1
102
RTVSPost2010Prop34
280
     0
102
RTVSPost2010PropOp34
 70
     1
102
RTVSPost2010Prop35
280
     0
102
RTVSPost2010PropOp35
 70
     1
102
RTVSPost2010Prop36
280
     0
102
RTVSPost2010PropOp36
 70
     1
102
RTVSPost2010Prop37
 90
       50
102
RTVSPost2010PropOp37
 70
     1
102
RTVSPost2010Prop38
140
0.0
102
RTVSPost2010PropOp38
 70
     1
102
RTVSPost2010Prop39
140
1.0
102
RTVSPost2010PropOp39
 70
     1
102
RTVSPost2010Prop40
 90
        0
102
RTVSPost2010PropOp40
 70
     1
102
RTVSPost2010Prop41ColorIndex
 90
      178
102
RTVSPost2010Prop41ColorRGB
 90
        0
102
RTVSPost2010PropOp41
 70
     1
102
RTVSPost2010Prop42
 90
       50
102
RTVSPost2010PropOp42
 70
     1
102
RTVSPost2010Prop43
 90
        3
102
RTVSPost2010PropOp43
 70
     1
102
RTVSPost2010Prop44ColorIndex
 90
        5
102
RTVSPost2010Prop44ColorRGB
 90
      255
102
RTVSPost2010PropOp44
 70
     1
102
RTVSPost2010Prop45
280
     0
102
RTVSPost2010PropOp45
 70
     1
102
RTVSPost2010Prop46
 90
       50
102
RTVSPost2010PropOp46
 70
     1
102
RTVSPost2010Prop47
 90
       50
102
RTVSPost2010PropOp47
 70
     1
102
RTVSPost2010Prop48
 90
       50
102
RTVSPost2010PropOp48
 70
     1
102
RTVSPost2010Prop49
280
     0
102
RTVSPost2010PropOp49
 70
     1
102
RTVSPost2010Prop50
 90
       50
102
RTVSPost2010PropOp50
 70
     1
102
RTVSPost2010Prop51ColorIndex
 90
      256
102
RTVSPost2010Prop51ColorRGB
 90
-16777216
102
RTVSPost2010PropOp51
 70
     0
102
RTVSPost2010Prop52
140
1.0
102
RTVSPost2010PropOp52
 70
     0
102
RTVSPost2010Prop53
 90
        2
102
RTVSPost2010PropOp53
 70
     1
102
RTVSPost2010Prop54
  1
strokes_ogs.tif
102
RTVSPost2010PropOp54
 70
     1
102
RTVSPost2010Prop55
280
     0
102
RTVSPost2010PropOp55
 70
     1
102
RTVSPost2010Prop56
140
1.0
102
RTVSPost2010PropOp56
 70
     1
102
RTVSPost2010Prop57
140
1.0
102
RTVSPost2010PropOp57
 70
     1
  0
XRECORD
  5
479
102
{ACAD_REACTORS
330
478
102
}
330
478
100
AcDbXrecord
280
     1
102
RTVSPost2010Prop28
280
     0
102
RTVSPost2010PropOp28
 70
     1
102
RTVSPost2010Prop29
280
     1
102
RTVSPost2010PropOp29
 70
     1
102
RTVSPost2010Prop30
280
     1
102
RTVSPost2010PropOp30
 70
     1
102
RTVSPost2010Prop31
280
     0
102
RTVSPost2010PropOp31
 70
     1
102
RTVSPost2010Prop32
280
     0
102
RTVSPost2010PropOp32
 70
     1
102
RTVSPost2010Prop33
280
     0
102
RTVSPost2010PropOp33
 70
     1
102
RTVSPost2010Prop34
280
     0
102
RTVSPost2010PropOp34
 70
     1
102
RTVSPost2010Prop35
280
     0
102
RTVSPost2010PropOp35
 70
     1
102
RTVSPost2010Prop36
280
     0
102
RTVSPost2010PropOp36
 70
     1
102
RTVSPost2010Prop37
 90
       50
102
RTVSPost2010PropOp37
 70
     1
102
RTVSPost2010Prop38
140
0.0
102
RTVSPost2010PropOp38
 70
     1
102
RTVSPost2010Prop39
140
1.0
102
RTVSPost2010PropOp39
 70
     1
102
RTVSPost2010Prop40
 90
        0
102
RTVSPost2010PropOp40
 70
     1
102
RTVSPost2010Prop41ColorIndex
 90
      178
102
RTVSPost2010Prop41ColorRGB
 90
        0
102
RTVSPost2010PropOp41
 70
     1
102
RTVSPost2010Prop42
 90
       50
102
RTVSPost2010PropOp42
 70
     1
102
RTVSPost2010Prop43
 90
        3
102
RTVSPost2010PropOp43
 70
     1
102
RTVSPost2010Prop44ColorIndex
 90
        5
102
RTVSPost2010Prop44ColorRGB
 90
      255
102
RTVSPost2010PropOp44
 70
     1
102
RTVSPost2010Prop45
280
     0
102
RTVSPost2010PropOp45
 70
     1
102
RTVSPost2010Prop46
 90
       50
102
RTVSPost2010PropOp46
 70
     1
102
RTVSPost2010Prop47
 90
       50
102
RTVSPost2010PropOp47
 70
     1
102
RTVSPost2010Prop48
 90
       50
102
RTVSPost2010PropOp48
 70
     1
102
RTVSPost2010Prop49
280
     0
102
RTVSPost2010PropOp49
 70
     1
102
RTVSPost2010Prop50
 90
       50
102
RTVSPost2010PropOp50
 70
     1
102
RTVSPost2010Prop51ColorIndex
 90
      256
102
RTVSPost2010Prop51ColorRGB
 90
-16777216
102
RTVSPost2010PropOp51
 70
     0
102
RTVSPost2010Prop52
140
1.0
102
RTVSPost2010PropOp52
 70
     0
102
RTVSPost2010Prop53
 90
        2
102
RTVSPost2010PropOp53
 70
     1
102
RTVSPost2010Prop54
  1
strokes_ogs.tif
102
RTVSPost2010PropOp54
 70
     1
102
RTVSPost2010Prop55
280
     0
102
RTVSPost2010PropOp55
 70
     1
102
RTVSPost2010Prop56
140
1.0
102
RTVSPost2010PropOp56
 70
     1
102
RTVSPost2010Prop57
140
1.0
102
RTVSPost2010PropOp57
 70
     1
  0
XRECORD
  5
489
102
{ACAD_REACTORS
330
488
102
}
330
488
100
AcDbXrecord
280
     1
102
RTVSPost2010Prop28
280
     0
102
RTVSPost2010PropOp28
 70
     0
102
RTVSPost2010Prop29
280
     1
102
RTVSPost2010PropOp29
 70
     0
102
RTVSPost2010Prop30
280
     1
102
RTVSPost2010PropOp30
 70
     0
102
RTVSPost2010Prop31
280
     0
102
RTVSPost2010PropOp31
 70
     0
102
RTVSPost2010Prop32
280
     0
102
RTVSPost2010PropOp32
 70
     0
102
RTVSPost2010Prop33
280
     0
102
RTVSPost2010PropOp33
 70
     0
102
RTVSPost2010Prop34
280
     0
102
RTVSPost2010PropOp34
 70
     0
102
RTVSPost2010Prop35
280
     0
102
RTVSPost2010PropOp35
 70
     0
102
RTVSPost2010Prop36
280
     0
102
RTVSPost2010PropOp36
 70
     0
102
RTVSPost2010Prop37
 90
       50
102
RTVSPost2010PropOp37
 70
     0
102
RTVSPost2010Prop38
140
0.0
102
RTVSPost2010PropOp38
 70
     0
102
RTVSPost2010Prop39
140
1.0
102
RTVSPost2010PropOp39
 70
     0
102
RTVSPost2010Prop40
 90
        0
102
RTVSPost2010PropOp40
 70
     0
102
RTVSPost2010Prop41ColorIndex
 90
      178
102
RTVSPost2010Prop41ColorRGB
 90
        0
102
RTVSPost2010PropOp41
 70
     0
102
RTVSPost2010Prop42
 90
       50
102
RTVSPost2010PropOp42
 70
     0
102
RTVSPost2010Prop43
 90
        3
102
RTVSPost2010PropOp43
 70
     0
102
RTVSPost2010Prop44ColorIndex
 90
        5
102
RTVSPost2010Prop44ColorRGB
 90
      255
102
RTVSPost2010PropOp44
 70
     0
102
RTVSPost2010Prop45
280
     0
102
RTVSPost2010PropOp45
 70
     0
102
RTVSPost2010Prop46
 90
       50
102
RTVSPost2010PropOp46
 70
     0
102
RTVSPost2010Prop47
 90
       50
102
RTVSPost2010PropOp47
 70
     0
102
RTVSPost2010Prop48
 90
       50
102
RTVSPost2010PropOp48
 70
     0
102
RTVSPost2010Prop49
280
     0
102
RTVSPost2010PropOp49
 70
     0
102
RTVSPost2010Prop50
 90
       50
102
RTVSPost2010PropOp50
 70
     0
102
RTVSPost2010Prop51ColorIndex
 90
      256
102
RTVSPost2010Prop51ColorRGB
 90
-16777216
102
RTVSPost2010PropOp51
 70
     0
102
RTVSPost2010Prop52
140
1.0
102
RTVSPost2010PropOp52
 70
     0
102
RTVSPost2010Prop53
 90
        2
102
RTVSPost2010PropOp53
 70
     0
102
RTVSPost2010Prop54
  1
strokes_ogs.tif
102
RTVSPost2010PropOp54
 70
     0
102
RTVSPost2010Prop55
280
     0
102
RTVSPost2010PropOp55
 70
     0
102
RTVSPost2010Prop56
140
1.0
102
RTVSPost2010PropOp56
 70
     0
102
RTVSPost2010Prop57
140
1.0
102
RTVSPost2010PropOp57
 70
     0
  0
XRECORD
  5
481
102
{ACAD_REACTORS
330
480
102
}
330
480
100
AcDbXrecord
280
     1
102
RTVSPost2010Prop28
280
     0
102
RTVSPost2010PropOp28
 70
     1
102
RTVSPost2010Prop29
280
     1
102
RTVSPost2010PropOp29
 70
     1
102
RTVSPost2010Prop30
280
     1
102
RTVSPost2010PropOp30
 70
     1
102
RTVSPost2010Prop31
280
     0
102
RTVSPost2010PropOp31
 70
     1
102
RTVSPost2010Prop32
280
     0
102
RTVSPost2010PropOp32
 70
     1
102
RTVSPost2010Prop33
280
     0
102
RTVSPost2010PropOp33
 70
     1
102
RTVSPost2010Prop34
280
     0
102
RTVSPost2010PropOp34
 70
     1
102
RTVSPost2010Prop35
280
     0
102
RTVSPost2010PropOp35
 70
     1
102
RTVSPost2010Prop36
280
     0
102
RTVSPost2010PropOp36
 70
     1
102
RTVSPost2010Prop37
 90
       50
102
RTVSPost2010PropOp37
 70
     1
102
RTVSPost2010Prop38
140
0.0
102
RTVSPost2010PropOp38
 70
     1
102
RTVSPost2010Prop39
140
1.0
102
RTVSPost2010PropOp39
 70
     1
102
RTVSPost2010Prop40
 90
        0
102
RTVSPost2010PropOp40
 70
     1
102
RTVSPost2010Prop41ColorIndex
 90
      178
102
RTVSPost2010Prop41ColorRGB
 90
        0
102
RTVSPost2010PropOp41
 70
     1
102
RTVSPost2010Prop42
 90
       50
102
RTVSPost2010PropOp42
 70
     1
102
RTVSPost2010Prop43
 90
        3
102
RTVSPost2010PropOp43
 70
     1
102
RTVSPost2010Prop44ColorIndex
 90
        5
102
RTVSPost2010Prop44ColorRGB
 90
      255
102
RTVSPost2010PropOp44
 70
     1
102
RTVSPost2010Prop45
280
     0
102
RTVSPost2010PropOp45
 70
     1
102
RTVSPost2010Prop46
 90
       50
102
RTVSPost2010PropOp46
 70
     1
102
RTVSPost2010Prop47
 90
       50
102
RTVSPost2010PropOp47
 70
     1
102
RTVSPost2010Prop48
 90
       50
102
RTVSPost2010PropOp48
 70
     1
102
RTVSPost2010Prop49
280
     0
102
RTVSPost2010PropOp49
 70
     1
102
RTVSPost2010Prop50
 90
       50
102
RTVSPost2010PropOp50
 70
     1
102
RTVSPost2010Prop51ColorIndex
 90
      256
102
RTVSPost2010Prop51ColorRGB
 90
-16777216
102
RTVSPost2010PropOp51
 70
     0
102
RTVSPost2010Prop52
140
1.0
102
RTVSPost2010PropOp52
 70
     0
102
RTVSPost2010Prop53
 90
        2
102
RTVSPost2010PropOp53
 70
     1
102
RTVSPost2010Prop54
  1
strokes_ogs.tif
102
RTVSPost2010PropOp54
 70
     1
102
RTVSPost2010Prop55
280
     0
102
RTVSPost2010PropOp55
 70
     1
102
RTVSPost2010Prop56
140
1.0
102
RTVSPost2010PropOp56
 70
     1
102
RTVSPost2010Prop57
140
1.0
102
RTVSPost2010PropOp57
 70
     1
  0
XRECORD
  5
465
102
{ACAD_REACTORS
330
464
102
}
330
464
100
AcDbXrecord
280
     1
102
RTVSPost2010Prop28
280
     0
102
RTVSPost2010PropOp28
 70
     1
102
RTVSPost2010Prop29
280
     1
102
RTVSPost2010PropOp29
 70
     1
102
RTVSPost2010Prop30
280
     1
102
RTVSPost2010PropOp30
 70
     1
102
RTVSPost2010Prop31
280
     0
102
RTVSPost2010PropOp31
 70
     1
102
RTVSPost2010Prop32
280
     0
102
RTVSPost2010PropOp32
 70
     1
102
RTVSPost2010Prop33
280
     0
102
RTVSPost2010PropOp33
 70
     1
102
RTVSPost2010Prop34
280
     0
102
RTVSPost2010PropOp34
 70
     1
102
RTVSPost2010Prop35
280
     0
102
RTVSPost2010PropOp35
 70
     1
102
RTVSPost2010Prop36
280
     0
102
RTVSPost2010PropOp36
 70
     1
102
RTVSPost2010Prop37
 90
       50
102
RTVSPost2010PropOp37
 70
     1
102
RTVSPost2010Prop38
140
0.0
102
RTVSPost2010PropOp38
 70
     1
102
RTVSPost2010Prop39
140
1.0
102
RTVSPost2010PropOp39
 70
     1
102
RTVSPost2010Prop40
 90
        0
102
RTVSPost2010PropOp40
 70
     1
102
RTVSPost2010Prop41ColorIndex
 90
      178
102
RTVSPost2010Prop41ColorRGB
 90
        0
102
RTVSPost2010PropOp41
 70
     1
102
RTVSPost2010Prop42
 90
       50
102
RTVSPost2010PropOp42
 70
     1
102
RTVSPost2010Prop43
 90
        3
102
RTVSPost2010PropOp43
 70
     1
102
RTVSPost2010Prop44ColorIndex
 90
        5
102
RTVSPost2010Prop44ColorRGB
 90
      255
102
RTVSPost2010PropOp44
 70
     1
102
RTVSPost2010Prop45
280
     0
102
RTVSPost2010PropOp45
 70
     1
102
RTVSPost2010Prop46
 90
       50
102
RTVSPost2010PropOp46
 70
     1
102
RTVSPost2010Prop47
 90
       50
102
RTVSPost2010PropOp47
 70
     1
102
RTVSPost2010Prop48
 90
       50
102
RTVSPost2010PropOp48
 70
     1
102
RTVSPost2010Prop49
280
     0
102
RTVSPost2010PropOp49
 70
     1
102
RTVSPost2010Prop50
 90
       50
102
RTVSPost2010PropOp50
 70
     1
102
RTVSPost2010Prop51ColorIndex
 90
      256
102
RTVSPost2010Prop51ColorRGB
 90
-16777216
102
RTVSPost2010PropOp51
 70
     0
102
RTVSPost2010Prop52
140
1.0
102
RTVSPost2010PropOp52
 70
     0
102
RTVSPost2010Prop53
 90
        2
102
RTVSPost2010PropOp53
 70
     1
102
RTVSPost2010Prop54
  1
strokes_ogs.tif
102
RTVSPost2010PropOp54
 70
     1
102
RTVSPost2010Prop55
280
     0
102
RTVSPost2010PropOp55
 70
     1
102
RTVSPost2010Prop56
140
1.0
102
RTVSPost2010PropOp56
 70
     1
102
RTVSPost2010Prop57
140
1.0
102
RTVSPost2010PropOp57
 70
     1
  0
XRECORD
  5
467
102
{ACAD_REACTORS
330
466
102
}
330
466
100
AcDbXrecord
280
     1
102
RTVSPost2010Prop28
280
     0
102
RTVSPost2010PropOp28
 70
     1
102
RTVSPost2010Prop29
280
     1
102
RTVSPost2010PropOp29
 70
     1
102
RTVSPost2010Prop30
280
     1
102
RTVSPost2010PropOp30
 70
     1
102
RTVSPost2010Prop31
280
     0
102
RTVSPost2010PropOp31
 70
     1
102
RTVSPost2010Prop32
280
     0
102
RTVSPost2010PropOp32
 70
     1
102
RTVSPost2010Prop33
280
     0
102
RTVSPost2010PropOp33
 70
     1
102
RTVSPost2010Prop34
280
     0
102
RTVSPost2010PropOp34
 70
     1
102
RTVSPost2010Prop35
280
     0
102
RTVSPost2010PropOp35
 70
     1
102
RTVSPost2010Prop36
280
     0
102
RTVSPost2010PropOp36
 70
     1
102
RTVSPost2010Prop37
 90
       50
102
RTVSPost2010PropOp37
 70
     1
102
RTVSPost2010Prop38
140
0.0
102
RTVSPost2010PropOp38
 70
     1
102
RTVSPost2010Prop39
140
1.0
102
RTVSPost2010PropOp39
 70
     1
102
RTVSPost2010Prop40
 90
        0
102
RTVSPost2010PropOp40
 70
     1
102
RTVSPost2010Prop41ColorIndex
 90
      178
102
RTVSPost2010Prop41ColorRGB
 90
        0
102
RTVSPost2010PropOp41
 70
     1
102
RTVSPost2010Prop42
 90
       50
102
RTVSPost2010PropOp42
 70
     1
102
RTVSPost2010Prop43
 90
        3
102
RTVSPost2010PropOp43
 70
     1
102
RTVSPost2010Prop44ColorIndex
 90
        5
102
RTVSPost2010Prop44ColorRGB
 90
      255
102
RTVSPost2010PropOp44
 70
     1
102
RTVSPost2010Prop45
280
     0
102
RTVSPost2010PropOp45
 70
     1
102
RTVSPost2010Prop46
 90
       50
102
RTVSPost2010PropOp46
 70
     1
102
RTVSPost2010Prop47
 90
       50
102
RTVSPost2010PropOp47
 70
     1
102
RTVSPost2010Prop48
 90
       50
102
RTVSPost2010PropOp48
 70
     1
102
RTVSPost2010Prop49
280
     0
102
RTVSPost2010PropOp49
 70
     1
102
RTVSPost2010Prop50
 90
       50
102
RTVSPost2010PropOp50
 70
     1
102
RTVSPost2010Prop51ColorIndex
 90
      256
102
RTVSPost2010Prop51ColorRGB
 90
-16777216
102
RTVSPost2010PropOp51
 70
     0
102
RTVSPost2010Prop52
140
1.0
102
RTVSPost2010PropOp52
 70
     0
102
RTVSPost2010Prop53
 90
        2
102
RTVSPost2010PropOp53
 70
     1
102
RTVSPost2010Prop54
  1
strokes_ogs.tif
102
RTVSPost2010PropOp54
 70
     1
102
RTVSPost2010Prop55
280
     0
102
RTVSPost2010PropOp55
 70
     1
102
RTVSPost2010Prop56
140
1.0
102
RTVSPost2010PropOp56
 70
     1
102
RTVSPost2010Prop57
140
1.0
102
RTVSPost2010PropOp57
 70
     1
  0
XRECORD
  5
469
102
{ACAD_REACTORS
330
468
102
}
330
468
100
AcDbXrecord
280
     1
102
RTVSPost2010Prop28
280
     0
102
RTVSPost2010PropOp28
 70
     1
102
RTVSPost2010Prop29
280
     1
102
RTVSPost2010PropOp29
 70
     1
102
RTVSPost2010Prop30
280
     1
102
RTVSPost2010PropOp30
 70
     1
102
RTVSPost2010Prop31
280
     0
102
RTVSPost2010PropOp31
 70
     1
102
RTVSPost2010Prop32
280
     0
102
RTVSPost2010PropOp32
 70
     1
102
RTVSPost2010Prop33
280
     0
102
RTVSPost2010PropOp33
 70
     1
102
RTVSPost2010Prop34
280
     0
102
RTVSPost2010PropOp34
 70
     1
102
RTVSPost2010Prop35
280
     0
102
RTVSPost2010PropOp35
 70
     1
102
RTVSPost2010Prop36
280
     0
102
RTVSPost2010PropOp36
 70
     1
102
RTVSPost2010Prop37
 90
       50
102
RTVSPost2010PropOp37
 70
     1
102
RTVSPost2010Prop38
140
0.0
102
RTVSPost2010PropOp38
 70
     1
102
RTVSPost2010Prop39
140
1.0
102
RTVSPost2010PropOp39
 70
     1
102
RTVSPost2010Prop40
 90
        0
102
RTVSPost2010PropOp40
 70
     1
102
RTVSPost2010Prop41ColorIndex
 90
      178
102
RTVSPost2010Prop41ColorRGB
 90
        0
102
RTVSPost2010PropOp41
 70
     1
102
RTVSPost2010Prop42
 90
       50
102
RTVSPost2010PropOp42
 70
     1
102
RTVSPost2010Prop43
 90
        3
102
RTVSPost2010PropOp43
 70
     1
102
RTVSPost2010Prop44ColorIndex
 90
        5
102
RTVSPost2010Prop44ColorRGB
 90
      255
102
RTVSPost2010PropOp44
 70
     1
102
RTVSPost2010Prop45
280
     0
102
RTVSPost2010PropOp45
 70
     1
102
RTVSPost2010Prop46
 90
       50
102
RTVSPost2010PropOp46
 70
     1
102
RTVSPost2010Prop47
 90
       50
102
RTVSPost2010PropOp47
 70
     1
102
RTVSPost2010Prop48
 90
       50
102
RTVSPost2010PropOp48
 70
     1
102
RTVSPost2010Prop49
280
     0
102
RTVSPost2010PropOp49
 70
     1
102
RTVSPost2010Prop50
 90
       50
102
RTVSPost2010PropOp50
 70
     1
102
RTVSPost2010Prop51ColorIndex
 90
      256
102
RTVSPost2010Prop51ColorRGB
 90
-16777216
102
RTVSPost2010PropOp51
 70
     0
102
RTVSPost2010Prop52
140
1.0
102
RTVSPost2010PropOp52
 70
     0
102
RTVSPost2010Prop53
 90
        2
102
RTVSPost2010PropOp53
 70
     1
102
RTVSPost2010Prop54
  1
strokes_ogs.tif
102
RTVSPost2010PropOp54
 70
     1
102
RTVSPost2010Prop55
280
     0
102
RTVSPost2010PropOp55
 70
     1
102
RTVSPost2010Prop56
140
1.0
102
RTVSPost2010PropOp56
 70
     1
102
RTVSPost2010Prop57
140
1.0
102
RTVSPost2010PropOp57
 70
     1
  0
XRECORD
  5
46B
102
{ACAD_REACTORS
330
46A
102
}
330
46A
100
AcDbXrecord
280
     1
102
RTVSPost2010Prop28
280
     0
102
RTVSPost2010PropOp28
 70
     1
102
RTVSPost2010Prop29
280
     1
102
RTVSPost2010PropOp29
 70
     1
102
RTVSPost2010Prop30
280
     1
102
RTVSPost2010PropOp30
 70
     1
102
RTVSPost2010Prop31
280
     0
102
RTVSPost2010PropOp31
 70
     1
102
RTVSPost2010Prop32
280
     0
102
RTVSPost2010PropOp32
 70
     1
102
RTVSPost2010Prop33
280
     0
102
RTVSPost2010PropOp33
 70
     1
102
RTVSPost2010Prop34
280
     0
102
RTVSPost2010PropOp34
 70
     1
102
RTVSPost2010Prop35
280
     0
102
RTVSPost2010PropOp35
 70
     1
102
RTVSPost2010Prop36
280
     0
102
RTVSPost2010PropOp36
 70
     1
102
RTVSPost2010Prop37
 90
       50
102
RTVSPost2010PropOp37
 70
     1
102
RTVSPost2010Prop38
140
0.0
102
RTVSPost2010PropOp38
 70
     1
102
RTVSPost2010Prop39
140
1.0
102
RTVSPost2010PropOp39
 70
     1
102
RTVSPost2010Prop40
 90
        0
102
RTVSPost2010PropOp40
 70
     1
102
RTVSPost2010Prop41ColorIndex
 90
      178
102
RTVSPost2010Prop41ColorRGB
 90
        0
102
RTVSPost2010PropOp41
 70
     1
102
RTVSPost2010Prop42
 90
       50
102
RTVSPost2010PropOp42
 70
     1
102
RTVSPost2010Prop43
 90
        3
102
RTVSPost2010PropOp43
 70
     1
102
RTVSPost2010Prop44ColorIndex
 90
        5
102
RTVSPost2010Prop44ColorRGB
 90
      255
102
RTVSPost2010PropOp44
 70
     1
102
RTVSPost2010Prop45
280
     0
102
RTVSPost2010PropOp45
 70
     1
102
RTVSPost2010Prop46
 90
       50
102
RTVSPost2010PropOp46
 70
     1
102
RTVSPost2010Prop47
 90
       50
102
RTVSPost2010PropOp47
 70
     1
102
RTVSPost2010Prop48
 90
       50
102
RTVSPost2010PropOp48
 70
     1
102
RTVSPost2010Prop49
280
     0
102
RTVSPost2010PropOp49
 70
     1
102
RTVSPost2010Prop50
 90
       50
102
RTVSPost2010PropOp50
 70
     1
102
RTVSPost2010Prop51ColorIndex
 90
      256
102
RTVSPost2010Prop51ColorRGB
 90
-16777216
102
RTVSPost2010PropOp51
 70
     0
102
RTVSPost2010Prop52
140
1.0
102
RTVSPost2010PropOp52
 70
     0
102
RTVSPost2010Prop53
 90
        2
102
RTVSPost2010PropOp53
 70
     1
102
RTVSPost2010Prop54
  1
strokes_ogs.tif
102
RTVSPost2010PropOp54
 70
     1
102
RTVSPost2010Prop55
280
     0
102
RTVSPost2010PropOp55
 70
     1
102
RTVSPost2010Prop56
140
1.0
102
RTVSPost2010PropOp56
 70
     1
102
RTVSPost2010Prop57
140
1.0
102
RTVSPost2010PropOp57
 70
     1
  0
XRECORD
  5
471
102
{ACAD_REACTORS
330
470
102
}
330
470
100
AcDbXrecord
280
     1
102
RTVSPost2010Prop28
280
     0
102
RTVSPost2010PropOp28
 70
     1
102
RTVSPost2010Prop29
280
     1
102
RTVSPost2010PropOp29
 70
     1
102
RTVSPost2010Prop30
280
     1
102
RTVSPost2010PropOp30
 70
     1
102
RTVSPost2010Prop31
280
     0
102
RTVSPost2010PropOp31
 70
     1
102
RTVSPost2010Prop32
280
     0
102
RTVSPost2010PropOp32
 70
     1
102
RTVSPost2010Prop33
280
     0
102
RTVSPost2010PropOp33
 70
     1
102
RTVSPost2010Prop34
280
     0
102
RTVSPost2010PropOp34
 70
     1
102
RTVSPost2010Prop35
280
     0
102
RTVSPost2010PropOp35
 70
     1
102
RTVSPost2010Prop36
280
     0
102
RTVSPost2010PropOp36
 70
     1
102
RTVSPost2010Prop37
 90
       50
102
RTVSPost2010PropOp37
 70
     1
102
RTVSPost2010Prop38
140
0.0
102
RTVSPost2010PropOp38
 70
     1
102
RTVSPost2010Prop39
140
1.0
102
RTVSPost2010PropOp39
 70
     1
102
RTVSPost2010Prop40
 90
        0
102
RTVSPost2010PropOp40
 70
     1
102
RTVSPost2010Prop41ColorIndex
 90
      178
102
RTVSPost2010Prop41ColorRGB
 90
        0
102
RTVSPost2010PropOp41
 70
     1
102
RTVSPost2010Prop42
 90
       50
102
RTVSPost2010PropOp42
 70
     1
102
RTVSPost2010Prop43
 90
        3
102
RTVSPost2010PropOp43
 70
     1
102
RTVSPost2010Prop44ColorIndex
 90
        5
102
RTVSPost2010Prop44ColorRGB
 90
      255
102
RTVSPost2010PropOp44
 70
     1
102
RTVSPost2010Prop45
280
     0
102
RTVSPost2010PropOp45
 70
     1
102
RTVSPost2010Prop46
 90
       50
102
RTVSPost2010PropOp46
 70
     1
102
RTVSPost2010Prop47
 90
       50
102
RTVSPost2010PropOp47
 70
     1
102
RTVSPost2010Prop48
 90
       50
102
RTVSPost2010PropOp48
 70
     1
102
RTVSPost2010Prop49
280
     0
102
RTVSPost2010PropOp49
 70
     1
102
RTVSPost2010Prop50
 90
       50
102
RTVSPost2010PropOp50
 70
     1
102
RTVSPost2010Prop51ColorIndex
 90
      256
102
RTVSPost2010Prop51ColorRGB
 90
-16777216
102
RTVSPost2010PropOp51
 70
     0
102
RTVSPost2010Prop52
140
1.0
102
RTVSPost2010PropOp52
 70
     0
102
RTVSPost2010Prop53
 90
        2
102
RTVSPost2010PropOp53
 70
     1
102
RTVSPost2010Prop54
  1
strokes_ogs.tif
102
RTVSPost2010PropOp54
 70
     1
102
RTVSPost2010Prop55
280
     0
102
RTVSPost2010PropOp55
 70
     1
102
RTVSPost2010Prop56
140
1.0
102
RTVSPost2010PropOp56
 70
     1
102
RTVSPost2010Prop57
140
1.0
102
RTVSPost2010PropOp57
 70
     1
  0
XRECORD
  5
485
102
{ACAD_REACTORS
330
484
102
}
330
484
100
AcDbXrecord
280
     1
102
RTVSPost2010Prop28
280
     0
102
RTVSPost2010PropOp28
 70
     0
102
RTVSPost2010Prop29
280
     1
102
RTVSPost2010PropOp29
 70
     0
102
RTVSPost2010Prop30
280
     1
102
RTVSPost2010PropOp30
 70
     0
102
RTVSPost2010Prop31
280
     0
102
RTVSPost2010PropOp31
 70
     0
102
RTVSPost2010Prop32
280
     0
102
RTVSPost2010PropOp32
 70
     0
102
RTVSPost2010Prop33
280
     0
102
RTVSPost2010PropOp33
 70
     0
102
RTVSPost2010Prop34
280
     0
102
RTVSPost2010PropOp34
 70
     0
102
RTVSPost2010Prop35
280
     0
102
RTVSPost2010PropOp35
 70
     0
102
RTVSPost2010Prop36
280
     0
102
RTVSPost2010PropOp36
 70
     0
102
RTVSPost2010Prop37
 90
       50
102
RTVSPost2010PropOp37
 70
     0
102
RTVSPost2010Prop38
140
0.0
102
RTVSPost2010PropOp38
 70
     0
102
RTVSPost2010Prop39
140
1.0
102
RTVSPost2010PropOp39
 70
     0
102
RTVSPost2010Prop40
 90
        0
102
RTVSPost2010PropOp40
 70
     0
102
RTVSPost2010Prop41ColorIndex
 90
      178
102
RTVSPost2010Prop41ColorRGB
 90
        0
102
RTVSPost2010PropOp41
 70
     0
102
RTVSPost2010Prop42
 90
       50
102
RTVSPost2010PropOp42
 70
     0
102
RTVSPost2010Prop43
 90
        3
102
RTVSPost2010PropOp43
 70
     0
102
RTVSPost2010Prop44ColorIndex
 90
        5
102
RTVSPost2010Prop44ColorRGB
 90
      255
102
RTVSPost2010PropOp44
 70
     0
102
RTVSPost2010Prop45
280
     0
102
RTVSPost2010PropOp45
 70
     0
102
RTVSPost2010Prop46
 90
       50
102
RTVSPost2010PropOp46
 70
     0
102
RTVSPost2010Prop47
 90
       50
102
RTVSPost2010PropOp47
 70
     0
102
RTVSPost2010Prop48
 90
       50
102
RTVSPost2010PropOp48
 70
     0
102
RTVSPost2010Prop49
280
     0
102
RTVSPost2010PropOp49
 70
     0
102
RTVSPost2010Prop50
 90
       50
102
RTVSPost2010PropOp50
 70
     0
102
RTVSPost2010Prop51ColorIndex
 90
      256
102
RTVSPost2010Prop51ColorRGB
 90
-16777216
102
RTVSPost2010PropOp51
 70
     0
102
RTVSPost2010Prop52
140
1.0
102
RTVSPost2010PropOp52
 70
     0
102
RTVSPost2010Prop53
 90
        2
102
RTVSPost2010PropOp53
 70
     0
102
RTVSPost2010Prop54
  1
strokes_ogs.tif
102
RTVSPost2010PropOp54
 70
     0
102
RTVSPost2010Prop55
280
     0
102
RTVSPost2010PropOp55
 70
     0
102
RTVSPost2010Prop56
140
1.0
102
RTVSPost2010PropOp56
 70
     0
102
RTVSPost2010Prop57
140
1.0
102
RTVSPost2010PropOp57
 70
     0
  0
XRECORD
  5
47F
102
{ACAD_REACTORS
330
47E
102
}
330
47E
100
AcDbXrecord
280
     1
102
RTVSPost2010Prop28
280
     0
102
RTVSPost2010PropOp28
 70
     1
102
RTVSPost2010Prop29
280
     1
102
RTVSPost2010PropOp29
 70
     1
102
RTVSPost2010Prop30
280
     1
102
RTVSPost2010PropOp30
 70
     1
102
RTVSPost2010Prop31
280
     0
102
RTVSPost2010PropOp31
 70
     1
102
RTVSPost2010Prop32
280
     0
102
RTVSPost2010PropOp32
 70
     1
102
RTVSPost2010Prop33
280
     0
102
RTVSPost2010PropOp33
 70
     1
102
RTVSPost2010Prop34
280
     0
102
RTVSPost2010PropOp34
 70
     1
102
RTVSPost2010Prop35
280
     0
102
RTVSPost2010PropOp35
 70
     1
102
RTVSPost2010Prop36
280
     0
102
RTVSPost2010PropOp36
 70
     1
102
RTVSPost2010Prop37
 90
       50
102
RTVSPost2010PropOp37
 70
     1
102
RTVSPost2010Prop38
140
0.0
102
RTVSPost2010PropOp38
 70
     1
102
RTVSPost2010Prop39
140
1.0
102
RTVSPost2010PropOp39
 70
     1
102
RTVSPost2010Prop40
 90
        0
102
RTVSPost2010PropOp40
 70
     1
102
RTVSPost2010Prop41ColorIndex
 90
      178
102
RTVSPost2010Prop41ColorRGB
 90
        0
102
RTVSPost2010PropOp41
 70
     1
102
RTVSPost2010Prop42
 90
       50
102
RTVSPost2010PropOp42
 70
     1
102
RTVSPost2010Prop43
 90
        3
102
RTVSPost2010PropOp43
 70
     1
102
RTVSPost2010Prop44ColorIndex
 90
        5
102
RTVSPost2010Prop44ColorRGB
 90
      255
102
RTVSPost2010PropOp44
 70
     1
102
RTVSPost2010Prop45
280
     0
102
RTVSPost2010PropOp45
 70
     1
102
RTVSPost2010Prop46
 90
       50
102
RTVSPost2010PropOp46
 70
     1
102
RTVSPost2010Prop47
 90
       50
102
RTVSPost2010PropOp47
 70
     1
102
RTVSPost2010Prop48
 90
       50
102
RTVSPost2010PropOp48
 70
     1
102
RTVSPost2010Prop49
280
     0
102
RTVSPost2010PropOp49
 70
     1
102
RTVSPost2010Prop50
 90
       50
102
RTVSPost2010PropOp50
 70
     1
102
RTVSPost2010Prop51ColorIndex
 90
      256
102
RTVSPost2010Prop51ColorRGB
 90
-16777216
102
RTVSPost2010PropOp51
 70
     0
102
RTVSPost2010Prop52
140
1.0
102
RTVSPost2010PropOp52
 70
     0
102
RTVSPost2010Prop53
 90
        2
102
RTVSPost2010PropOp53
 70
     1
102
RTVSPost2010Prop54
  1
strokes_ogs.tif
102
RTVSPost2010PropOp54
 70
     1
102
RTVSPost2010Prop55
280
     0
102
RTVSPost2010PropOp55
 70
     1
102
RTVSPost2010Prop56
140
1.0
102
RTVSPost2010PropOp56
 70
     1
102
RTVSPost2010Prop57
140
1.0
102
RTVSPost2010PropOp57
 70
     1
  0
XRECORD
  5
487
102
{ACAD_REACTORS
330
486
102
}
330
486
100
AcDbXrecord
280
     1
102
RTVSPost2010Prop28
280
     0
102
RTVSPost2010PropOp28
 70
     0
102
RTVSPost2010Prop29
280
     1
102
RTVSPost2010PropOp29
 70
     0
102
RTVSPost2010Prop30
280
     1
102
RTVSPost2010PropOp30
 70
     0
102
RTVSPost2010Prop31
280
     0
102
RTVSPost2010PropOp31
 70
     0
102
RTVSPost2010Prop32
280
     0
102
RTVSPost2010PropOp32
 70
     0
102
RTVSPost2010Prop33
280
     0
102
RTVSPost2010PropOp33
 70
     0
102
RTVSPost2010Prop34
280
     0
102
RTVSPost2010PropOp34
 70
     0
102
RTVSPost2010Prop35
280
     0
102
RTVSPost2010PropOp35
 70
     0
102
RTVSPost2010Prop36
280
     0
102
RTVSPost2010PropOp36
 70
     0
102
RTVSPost2010Prop37
 90
       50
102
RTVSPost2010PropOp37
 70
     0
102
RTVSPost2010Prop38
140
0.0
102
RTVSPost2010PropOp38
 70
     0
102
RTVSPost2010Prop39
140
1.0
102
RTVSPost2010PropOp39
 70
     0
102
RTVSPost2010Prop40
 90
        0
102
RTVSPost2010PropOp40
 70
     0
102
RTVSPost2010Prop41ColorIndex
 90
      178
102
RTVSPost2010Prop41ColorRGB
 90
        0
102
RTVSPost2010PropOp41
 70
     0
102
RTVSPost2010Prop42
 90
       50
102
RTVSPost2010PropOp42
 70
     0
102
RTVSPost2010Prop43
 90
        3
102
RTVSPost2010PropOp43
 70
     0
102
RTVSPost2010Prop44ColorIndex
 90
        5
102
RTVSPost2010Prop44ColorRGB
 90
      255
102
RTVSPost2010PropOp44
 70
     0
102
RTVSPost2010Prop45
280
     0
102
RTVSPost2010PropOp45
 70
     0
102
RTVSPost2010Prop46
 90
       50
102
RTVSPost2010PropOp46
 70
     0
102
RTVSPost2010Prop47
 90
       50
102
RTVSPost2010PropOp47
 70
     0
102
RTVSPost2010Prop48
 90
       50
102
RTVSPost2010PropOp48
 70
     0
102
RTVSPost2010Prop49
280
     0
102
RTVSPost2010PropOp49
 70
     0
102
RTVSPost2010Prop50
 90
       50
102
RTVSPost2010PropOp50
 70
     0
102
RTVSPost2010Prop51ColorIndex
 90
      256
102
RTVSPost2010Prop51ColorRGB
 90
-16777216
102
RTVSPost2010PropOp51
 70
     0
102
RTVSPost2010Prop52
140
1.0
102
RTVSPost2010PropOp52
 70
     0
102
RTVSPost2010Prop53
 90
        2
102
RTVSPost2010PropOp53
 70
     0
102
RTVSPost2010Prop54
  1
strokes_ogs.tif
102
RTVSPost2010PropOp54
 70
     0
102
RTVSPost2010Prop55
280
     0
102
RTVSPost2010PropOp55
 70
     0
102
RTVSPost2010Prop56
140
1.0
102
RTVSPost2010PropOp56
 70
     0
102
RTVSPost2010Prop57
140
1.0
102
RTVSPost2010PropOp57
 70
     0
  0
XRECORD
  5
475
102
{ACAD_REACTORS
330
474
102
}
330
474
100
AcDbXrecord
280
     1
102
RTVSPost2010Prop28
280
     0
102
RTVSPost2010PropOp28
 70
     1
102
RTVSPost2010Prop29
280
     1
102
RTVSPost2010PropOp29
 70
     1
102
RTVSPost2010Prop30
280
     1
102
RTVSPost2010PropOp30
 70
     1
102
RTVSPost2010Prop31
280
     0
102
RTVSPost2010PropOp31
 70
     1
102
RTVSPost2010Prop32
280
     0
102
RTVSPost2010PropOp32
 70
     1
102
RTVSPost2010Prop33
280
     0
102
RTVSPost2010PropOp33
 70
     1
102
RTVSPost2010Prop34
280
     0
102
RTVSPost2010PropOp34
 70
     1
102
RTVSPost2010Prop35
280
     0
102
RTVSPost2010PropOp35
 70
     1
102
RTVSPost2010Prop36
280
     0
102
RTVSPost2010PropOp36
 70
     1
102
RTVSPost2010Prop37
 90
       50
102
RTVSPost2010PropOp37
 70
     1
102
RTVSPost2010Prop38
140
0.0
102
RTVSPost2010PropOp38
 70
     1
102
RTVSPost2010Prop39
140
1.0
102
RTVSPost2010PropOp39
 70
     1
102
RTVSPost2010Prop40
 90
        0
102
RTVSPost2010PropOp40
 70
     1
102
RTVSPost2010Prop41ColorIndex
 90
      178
102
RTVSPost2010Prop41ColorRGB
 90
        0
102
RTVSPost2010PropOp41
 70
     1
102
RTVSPost2010Prop42
 90
       50
102
RTVSPost2010PropOp42
 70
     1
102
RTVSPost2010Prop43
 90
        3
102
RTVSPost2010PropOp43
 70
     1
102
RTVSPost2010Prop44ColorIndex
 90
        5
102
RTVSPost2010Prop44ColorRGB
 90
      255
102
RTVSPost2010PropOp44
 70
     1
102
RTVSPost2010Prop45
280
     0
102
RTVSPost2010PropOp45
 70
     1
102
RTVSPost2010Prop46
 90
       50
102
RTVSPost2010PropOp46
 70
     1
102
RTVSPost2010Prop47
 90
       50
102
RTVSPost2010PropOp47
 70
     1
102
RTVSPost2010Prop48
 90
       50
102
RTVSPost2010PropOp48
 70
     1
102
RTVSPost2010Prop49
280
     0
102
RTVSPost2010PropOp49
 70
     1
102
RTVSPost2010Prop50
 90
       50
102
RTVSPost2010PropOp50
 70
     1
102
RTVSPost2010Prop51ColorIndex
 90
      256
102
RTVSPost2010Prop51ColorRGB
 90
-16777216
102
RTVSPost2010PropOp51
 70
     0
102
RTVSPost2010Prop52
140
1.0
102
RTVSPost2010PropOp52
 70
     0
102
RTVSPost2010Prop53
 90
        2
102
RTVSPost2010PropOp53
 70
     1
102
RTVSPost2010Prop54
  1
strokes_ogs.tif
102
RTVSPost2010PropOp54
 70
     1
102
RTVSPost2010Prop55
280
     0
102
RTVSPost2010PropOp55
 70
     1
102
RTVSPost2010Prop56
140
1.0
102
RTVSPost2010PropOp56
 70
     1
102
RTVSPost2010Prop57
140
1.0
102
RTVSPost2010PropOp57
 70
     1
  0
XRECORD
  5
493
102
{ACAD_REACTORS
330
492
102
}
330
492
100
AcDbXrecord
280
     1
102
RTVSPost2010Prop28
280
     0
102
RTVSPost2010PropOp28
 70
     1
102
RTVSPost2010Prop29
280
     1
102
RTVSPost2010PropOp29
 70
     1
102
RTVSPost2010Prop30
280
     1
102
RTVSPost2010PropOp30
 70
     1
102
RTVSPost2010Prop31
280
     0
102
RTVSPost2010PropOp31
 70
     1
102
RTVSPost2010Prop32
280
     0
102
RTVSPost2010PropOp32
 70
     1
102
RTVSPost2010Prop33
280
     0
102
RTVSPost2010PropOp33
 70
     1
102
RTVSPost2010Prop34
280
     0
102
RTVSPost2010PropOp34
 70
     1
102
RTVSPost2010Prop35
280
     0
102
RTVSPost2010PropOp35
 70
     1
102
RTVSPost2010Prop36
280
     0
102
RTVSPost2010PropOp36
 70
     1
102
RTVSPost2010Prop37
 90
       50
102
RTVSPost2010PropOp37
 70
     1
102
RTVSPost2010Prop38
140
0.0
102
RTVSPost2010PropOp38
 70
     1
102
RTVSPost2010Prop39
140
1.0
102
RTVSPost2010PropOp39
 70
     1
102
RTVSPost2010Prop40
 90
        0
102
RTVSPost2010PropOp40
 70
     1
102
RTVSPost2010Prop41ColorIndex
 90
      178
102
RTVSPost2010Prop41ColorRGB
 90
        0
102
RTVSPost2010PropOp41
 70
     1
102
RTVSPost2010Prop42
 90
       50
102
RTVSPost2010PropOp42
 70
     1
102
RTVSPost2010Prop43
 90
        3
102
RTVSPost2010PropOp43
 70
     1
102
RTVSPost2010Prop44ColorIndex
 90
        5
102
RTVSPost2010Prop44ColorRGB
 90
      255
102
RTVSPost2010PropOp44
 70
     1
102
RTVSPost2010Prop45
280
     0
102
RTVSPost2010PropOp45
 70
     1
102
RTVSPost2010Prop46
 90
       50
102
RTVSPost2010PropOp46
 70
     1
102
RTVSPost2010Prop47
 90
       50
102
RTVSPost2010PropOp47
 70
     1
102
RTVSPost2010Prop48
 90
       50
102
RTVSPost2010PropOp48
 70
     1
102
RTVSPost2010Prop49
280
     0
102
RTVSPost2010PropOp49
 70
     1
102
RTVSPost2010Prop50
 90
       50
102
RTVSPost2010PropOp50
 70
     1
102
RTVSPost2010Prop51ColorIndex
 90
      256
102
RTVSPost2010Prop51ColorRGB
 90
-16777216
102
RTVSPost2010PropOp51
 70
     0
102
RTVSPost2010Prop52
140
1.0
102
RTVSPost2010PropOp52
 70
     0
102
RTVSPost2010Prop53
 90
        2
102
RTVSPost2010PropOp53
 70
     1
102
RTVSPost2010Prop54
  1
strokes_ogs.tif
102
RTVSPost2010PropOp54
 70
     1
102
RTVSPost2010Prop55
280
     0
102
RTVSPost2010PropOp55
 70
     1
102
RTVSPost2010Prop56
140
1.0
102
RTVSPost2010PropOp56
 70
     1
102
RTVSPost2010Prop57
140
1.0
102
RTVSPost2010PropOp57
 70
     1
  0
XRECORD
  5
491
102
{ACAD_REACTORS
330
490
102
}
330
490
100
AcDbXrecord
280
     1
102
RTVSPost2010Prop28
280
     0
102
RTVSPost2010PropOp28
 70
     1
102
RTVSPost2010Prop29
280
     1
102
RTVSPost2010PropOp29
 70
     1
102
RTVSPost2010Prop30
280
     1
102
RTVSPost2010PropOp30
 70
     1
102
RTVSPost2010Prop31
280
     0
102
RTVSPost2010PropOp31
 70
     1
102
RTVSPost2010Prop32
280
     0
102
RTVSPost2010PropOp32
 70
     1
102
RTVSPost2010Prop33
280
     0
102
RTVSPost2010PropOp33
 70
     1
102
RTVSPost2010Prop34
280
     0
102
RTVSPost2010PropOp34
 70
     1
102
RTVSPost2010Prop35
280
     0
102
RTVSPost2010PropOp35
 70
     1
102
RTVSPost2010Prop36
280
     0
102
RTVSPost2010PropOp36
 70
     1
102
RTVSPost2010Prop37
 90
       50
102
RTVSPost2010PropOp37
 70
     1
102
RTVSPost2010Prop38
140
0.0
102
RTVSPost2010PropOp38
 70
     1
102
RTVSPost2010Prop39
140
1.0
102
RTVSPost2010PropOp39
 70
     1
102
RTVSPost2010Prop40
 90
        0
102
RTVSPost2010PropOp40
 70
     1
102
RTVSPost2010Prop41ColorIndex
 90
      178
102
RTVSPost2010Prop41ColorRGB
 90
        0
102
RTVSPost2010PropOp41
 70
     1
102
RTVSPost2010Prop42
 90
       50
102
RTVSPost2010PropOp42
 70
     1
102
RTVSPost2010Prop43
 90
        3
102
RTVSPost2010PropOp43
 70
     1
102
RTVSPost2010Prop44ColorIndex
 90
        5
102
RTVSPost2010Prop44ColorRGB
 90
      255
102
RTVSPost2010PropOp44
 70
     1
102
RTVSPost2010Prop45
280
     0
102
RTVSPost2010PropOp45
 70
     1
102
RTVSPost2010Prop46
 90
       50
102
RTVSPost2010PropOp46
 70
     1
102
RTVSPost2010Prop47
 90
       50
102
RTVSPost2010PropOp47
 70
     1
102
RTVSPost2010Prop48
 90
       50
102
RTVSPost2010PropOp48
 70
     1
102
RTVSPost2010Prop49
280
     0
102
RTVSPost2010PropOp49
 70
     1
102
RTVSPost2010Prop50
 90
       50
102
RTVSPost2010PropOp50
 70
     1
102
RTVSPost2010Prop51ColorIndex
 90
      256
102
RTVSPost2010Prop51ColorRGB
 90
-16777216
102
RTVSPost2010PropOp51
 70
     0
102
RTVSPost2010Prop52
140
1.0
102
RTVSPost2010PropOp52
 70
     0
102
RTVSPost2010Prop53
 90
        2
102
RTVSPost2010PropOp53
 70
     1
102
RTVSPost2010Prop54
  1
strokes_ogs.tif
102
RTVSPost2010PropOp54
 70
     1
102
RTVSPost2010Prop55
280
     0
102
RTVSPost2010PropOp55
 70
     1
102
RTVSPost2010Prop56
140
1.0
102
RTVSPost2010PropOp56
 70
     1
102
RTVSPost2010Prop57
140
1.0
102
RTVSPost2010PropOp57
 70
     1
  0
XRECORD
  5
48B
102
{ACAD_REACTORS
330
48A
102
}
330
48A
100
AcDbXrecord
280
     1
102
RTVSPost2010Prop28
280
     0
102
RTVSPost2010PropOp28
 70
     1
102
RTVSPost2010Prop29
280
     1
102
RTVSPost2010PropOp29
 70
     1
102
RTVSPost2010Prop30
280
     1
102
RTVSPost2010PropOp30
 70
     1
102
RTVSPost2010Prop31
280
     0
102
RTVSPost2010PropOp31
 70
     1
102
RTVSPost2010Prop32
280
     0
102
RTVSPost2010PropOp32
 70
     1
102
RTVSPost2010Prop33
280
     0
102
RTVSPost2010PropOp33
 70
     1
102
RTVSPost2010Prop34
280
     0
102
RTVSPost2010PropOp34
 70
     1
102
RTVSPost2010Prop35
280
     0
102
RTVSPost2010PropOp35
 70
     1
102
RTVSPost2010Prop36
280
     0
102
RTVSPost2010PropOp36
 70
     1
102
RTVSPost2010Prop37
 90
       50
102
RTVSPost2010PropOp37
 70
     1
102
RTVSPost2010Prop38
140
0.0
102
RTVSPost2010PropOp38
 70
     1
102
RTVSPost2010Prop39
140
1.0
102
RTVSPost2010PropOp39
 70
     1
102
RTVSPost2010Prop40
 90
        0
102
RTVSPost2010PropOp40
 70
     1
102
RTVSPost2010Prop41ColorIndex
 90
      178
102
RTVSPost2010Prop41ColorRGB
 90
        0
102
RTVSPost2010PropOp41
 70
     1
102
RTVSPost2010Prop42
 90
       50
102
RTVSPost2010PropOp42
 70
     1
102
RTVSPost2010Prop43
 90
        3
102
RTVSPost2010PropOp43
 70
     1
102
RTVSPost2010Prop44ColorIndex
 90
        5
102
RTVSPost2010Prop44ColorRGB
 90
      255
102
RTVSPost2010PropOp44
 70
     1
102
RTVSPost2010Prop45
280
     0
102
RTVSPost2010PropOp45
 70
     1
102
RTVSPost2010Prop46
 90
       50
102
RTVSPost2010PropOp46
 70
     1
102
RTVSPost2010Prop47
 90
       50
102
RTVSPost2010PropOp47
 70
     1
102
RTVSPost2010Prop48
 90
       50
102
RTVSPost2010PropOp48
 70
     1
102
RTVSPost2010Prop49
280
     0
102
RTVSPost2010PropOp49
 70
     1
102
RTVSPost2010Prop50
 90
       50
102
RTVSPost2010PropOp50
 70
     1
102
RTVSPost2010Prop51ColorIndex
 90
      256
102
RTVSPost2010Prop51ColorRGB
 90
-16777216
102
RTVSPost2010PropOp51
 70
     0
102
RTVSPost2010Prop52
140
1.0
102
RTVSPost2010PropOp52
 70
     0
102
RTVSPost2010Prop53
 90
        2
102
RTVSPost2010PropOp53
 70
     1
102
RTVSPost2010Prop54
  1
strokes_ogs.tif
102
RTVSPost2010PropOp54
 70
     1
102
RTVSPost2010Prop55
280
     0
102
RTVSPost2010PropOp55
 70
     1
102
RTVSPost2010Prop56
140
1.0
102
RTVSPost2010PropOp56
 70
     1
102
RTVSPost2010Prop57
140
1.0
102
RTVSPost2010PropOp57
 70
     1
  0
XRECORD
  5
48D
102
{ACAD_REACTORS
330
48C
102
}
330
48C
100
AcDbXrecord
280
     1
102
RTVSPost2010Prop28
280
     0
102
RTVSPost2010PropOp28
 70
     1
102
RTVSPost2010Prop29
280
     1
102
RTVSPost2010PropOp29
 70
     1
102
RTVSPost2010Prop30
280
     1
102
RTVSPost2010PropOp30
 70
     1
102
RTVSPost2010Prop31
280
     0
102
RTVSPost2010PropOp31
 70
     1
102
RTVSPost2010Prop32
280
     0
102
RTVSPost2010PropOp32
 70
     1
102
RTVSPost2010Prop33
280
     0
102
RTVSPost2010PropOp33
 70
     1
102
RTVSPost2010Prop34
280
     0
102
RTVSPost2010PropOp34
 70
     1
102
RTVSPost2010Prop35
280
     0
102
RTVSPost2010PropOp35
 70
     1
102
RTVSPost2010Prop36
280
     0
102
RTVSPost2010PropOp36
 70
     1
102
RTVSPost2010Prop37
 90
       50
102
RTVSPost2010PropOp37
 70
     1
102
RTVSPost2010Prop38
140
0.0
102
RTVSPost2010PropOp38
 70
     1
102
RTVSPost2010Prop39
140
1.0
102
RTVSPost2010PropOp39
 70
     1
102
RTVSPost2010Prop40
 90
        0
102
RTVSPost2010PropOp40
 70
     1
102
RTVSPost2010Prop41ColorIndex
 90
      178
102
RTVSPost2010Prop41ColorRGB
 90
        0
102
RTVSPost2010PropOp41
 70
     1
102
RTVSPost2010Prop42
 90
       50
102
RTVSPost2010PropOp42
 70
     1
102
RTVSPost2010Prop43
 90
        3
102
RTVSPost2010PropOp43
 70
     1
102
RTVSPost2010Prop44ColorIndex
 90
        5
102
RTVSPost2010Prop44ColorRGB
 90
      255
102
RTVSPost2010PropOp44
 70
     1
102
RTVSPost2010Prop45
280
     0
102
RTVSPost2010PropOp45
 70
     1
102
RTVSPost2010Prop46
 90
       50
102
RTVSPost2010PropOp46
 70
     1
102
RTVSPost2010Prop47
 90
       50
102
RTVSPost2010PropOp47
 70
     1
102
RTVSPost2010Prop48
 90
       50
102
RTVSPost2010PropOp48
 70
     1
102
RTVSPost2010Prop49
280
     0
102
RTVSPost2010PropOp49
 70
     1
102
RTVSPost2010Prop50
 90
       50
102
RTVSPost2010PropOp50
 70
     1
102
RTVSPost2010Prop51ColorIndex
 90
      256
102
RTVSPost2010Prop51ColorRGB
 90
-16777216
102
RTVSPost2010PropOp51
 70
     0
102
RTVSPost2010Prop52
140
1.0
102
RTVSPost2010PropOp52
 70
     0
102
RTVSPost2010Prop53
 90
        2
102
RTVSPost2010PropOp53
 70
     1
102
RTVSPost2010Prop54
  1
strokes_ogs.tif
102
RTVSPost2010PropOp54
 70
     1
102
RTVSPost2010Prop55
280
     0
102
RTVSPost2010PropOp55
 70
     1
102
RTVSPost2010Prop56
140
1.0
102
RTVSPost2010PropOp56
 70
     1
102
RTVSPost2010Prop57
140
1.0
102
RTVSPost2010PropOp57
 70
     1
  0
XRECORD
  5
47D
102
{ACAD_REACTORS
330
47C
102
}
330
47C
100
AcDbXrecord
280
     1
102
RTVSPost2010Prop28
280
     0
102
RTVSPost2010PropOp28
 70
     1
102
RTVSPost2010Prop29
280
     1
102
RTVSPost2010PropOp29
 70
     1
102
RTVSPost2010Prop30
280
     1
102
RTVSPost2010PropOp30
 70
     1
102
RTVSPost2010Prop31
280
     0
102
RTVSPost2010PropOp31
 70
     1
102
RTVSPost2010Prop32
280
     0
102
RTVSPost2010PropOp32
 70
     1
102
RTVSPost2010Prop33
280
     0
102
RTVSPost2010PropOp33
 70
     1
102
RTVSPost2010Prop34
280
     0
102
RTVSPost2010PropOp34
 70
     1
102
RTVSPost2010Prop35
280
     0
102
RTVSPost2010PropOp35
 70
     1
102
RTVSPost2010Prop36
280
     0
102
RTVSPost2010PropOp36
 70
     1
102
RTVSPost2010Prop37
 90
       50
102
RTVSPost2010PropOp37
 70
     1
102
RTVSPost2010Prop38
140
0.0
102
RTVSPost2010PropOp38
 70
     1
102
RTVSPost2010Prop39
140
1.0
102
RTVSPost2010PropOp39
 70
     1
102
RTVSPost2010Prop40
 90
        0
102
RTVSPost2010PropOp40
 70
     1
102
RTVSPost2010Prop41ColorIndex
 90
      178
102
RTVSPost2010Prop41ColorRGB
 90
        0
102
RTVSPost2010PropOp41
 70
     1
102
RTVSPost2010Prop42
 90
       50
102
RTVSPost2010PropOp42
 70
     1
102
RTVSPost2010Prop43
 90
        3
102
RTVSPost2010PropOp43
 70
     1
102
RTVSPost2010Prop44ColorIndex
 90
        5
102
RTVSPost2010Prop44ColorRGB
 90
      255
102
RTVSPost2010PropOp44
 70
     1
102
RTVSPost2010Prop45
280
     0
102
RTVSPost2010PropOp45
 70
     1
102
RTVSPost2010Prop46
 90
       50
102
RTVSPost2010PropOp46
 70
     1
102
RTVSPost2010Prop47
 90
       50
102
RTVSPost2010PropOp47
 70
     1
102
RTVSPost2010Prop48
 90
       50
102
RTVSPost2010PropOp48
 70
     1
102
RTVSPost2010Prop49
280
     0
102
RTVSPost2010PropOp49
 70
     1
102
RTVSPost2010Prop50
 90
       50
102
RTVSPost2010PropOp50
 70
     1
102
RTVSPost2010Prop51ColorIndex
 90
      256
102
RTVSPost2010Prop51ColorRGB
 90
-16777216
102
RTVSPost2010PropOp51
 70
     0
102
RTVSPost2010Prop52
140
1.0
102
RTVSPost2010PropOp52
 70
     0
102
RTVSPost2010Prop53
 90
        2
102
RTVSPost2010PropOp53
 70
     1
102
RTVSPost2010Prop54
  1
strokes_ogs.tif
102
RTVSPost2010PropOp54
 70
     1
102
RTVSPost2010Prop55
280
     0
102
RTVSPost2010PropOp55
 70
     1
102
RTVSPost2010Prop56
140
1.0
102
RTVSPost2010PropOp56
 70
     1
102
RTVSPost2010Prop57
140
1.0
102
RTVSPost2010PropOp57
 70
     1
  0
XRECORD
  5
46F
102
{ACAD_REACTORS
330
46E
102
}
330
46E
100
AcDbXrecord
280
     1
102
RTVSPost2010Prop28
280
     0
102
RTVSPost2010PropOp28
 70
     1
102
RTVSPost2010Prop29
280
     1
102
RTVSPost2010PropOp29
 70
     1
102
RTVSPost2010Prop30
280
     1
102
RTVSPost2010PropOp30
 70
     1
102
RTVSPost2010Prop31
280
     0
102
RTVSPost2010PropOp31
 70
     1
102
RTVSPost2010Prop32
280
     0
102
RTVSPost2010PropOp32
 70
     1
102
RTVSPost2010Prop33
280
     0
102
RTVSPost2010PropOp33
 70
     1
102
RTVSPost2010Prop34
280
     0
102
RTVSPost2010PropOp34
 70
     1
102
RTVSPost2010Prop35
280
     0
102
RTVSPost2010PropOp35
 70
     1
102
RTVSPost2010Prop36
280
     0
102
RTVSPost2010PropOp36
 70
     1
102
RTVSPost2010Prop37
 90
       50
102
RTVSPost2010PropOp37
 70
     1
102
RTVSPost2010Prop38
140
0.0
102
RTVSPost2010PropOp38
 70
     1
102
RTVSPost2010Prop39
140
1.0
102
RTVSPost2010PropOp39
 70
     1
102
RTVSPost2010Prop40
 90
        0
102
RTVSPost2010PropOp40
 70
     1
102
RTVSPost2010Prop41ColorIndex
 90
      178
102
RTVSPost2010Prop41ColorRGB
 90
        0
102
RTVSPost2010PropOp41
 70
     1
102
RTVSPost2010Prop42
 90
       50
102
RTVSPost2010PropOp42
 70
     1
102
RTVSPost2010Prop43
 90
        3
102
RTVSPost2010PropOp43
 70
     1
102
RTVSPost2010Prop44ColorIndex
 90
        5
102
RTVSPost2010Prop44ColorRGB
 90
      255
102
RTVSPost2010PropOp44
 70
     1
102
RTVSPost2010Prop45
280
     0
102
RTVSPost2010PropOp45
 70
     1
102
RTVSPost2010Prop46
 90
       50
102
RTVSPost2010PropOp46
 70
     1
102
RTVSPost2010Prop47
 90
       50
102
RTVSPost2010PropOp47
 70
     1
102
RTVSPost2010Prop48
 90
       50
102
RTVSPost2010PropOp48
 70
     1
102
RTVSPost2010Prop49
280
     0
102
RTVSPost2010PropOp49
 70
     1
102
RTVSPost2010Prop50
 90
       50
102
RTVSPost2010PropOp50
 70
     1
102
RTVSPost2010Prop51ColorIndex
 90
      256
102
RTVSPost2010Prop51ColorRGB
 90
-16777216
102
RTVSPost2010PropOp51
 70
     0
102
RTVSPost2010Prop52
140
1.0
102
RTVSPost2010PropOp52
 70
     0
102
RTVSPost2010Prop53
 90
        2
102
RTVSPost2010PropOp53
 70
     1
102
RTVSPost2010Prop54
  1
strokes_ogs.tif
102
RTVSPost2010PropOp54
 70
     1
102
RTVSPost2010Prop55
280
     0
102
RTVSPost2010PropOp55
 70
     1
102
RTVSPost2010Prop56
140
1.0
102
RTVSPost2010PropOp56
 70
     1
102
RTVSPost2010Prop57
140
1.0
102
RTVSPost2010PropOp57
 70
     1
  0
XRECORD
  5
48F
102
{ACAD_REACTORS
330
48E
102
}
330
48E
100
AcDbXrecord
280
     1
102
RTVSPost2010Prop28
280
     0
102
RTVSPost2010PropOp28
 70
     1
102
RTVSPost2010Prop29
280
     1
102
RTVSPost2010PropOp29
 70
     1
102
RTVSPost2010Prop30
280
     1
102
RTVSPost2010PropOp30
 70
     1
102
RTVSPost2010Prop31
280
     0
102
RTVSPost2010PropOp31
 70
     1
102
RTVSPost2010Prop32
280
     0
102
RTVSPost2010PropOp32
 70
     1
102
RTVSPost2010Prop33
280
     0
102
RTVSPost2010PropOp33
 70
     1
102
RTVSPost2010Prop34
280
     0
102
RTVSPost2010PropOp34
 70
     1
102
RTVSPost2010Prop35
280
     0
102
RTVSPost2010PropOp35
 70
     1
102
RTVSPost2010Prop36
280
     0
102
RTVSPost2010PropOp36
 70
     1
102
RTVSPost2010Prop37
 90
       50
102
RTVSPost2010PropOp37
 70
     1
102
RTVSPost2010Prop38
140
0.0
102
RTVSPost2010PropOp38
 70
     1
102
RTVSPost2010Prop39
140
1.0
102
RTVSPost2010PropOp39
 70
     1
102
RTVSPost2010Prop40
 90
        0
102
RTVSPost2010PropOp40
 70
     1
102
RTVSPost2010Prop41ColorIndex
 90
      178
102
RTVSPost2010Prop41ColorRGB
 90
        0
102
RTVSPost2010PropOp41
 70
     1
102
RTVSPost2010Prop42
 90
       50
102
RTVSPost2010PropOp42
 70
     1
102
RTVSPost2010Prop43
 90
        3
102
RTVSPost2010PropOp43
 70
     1
102
RTVSPost2010Prop44ColorIndex
 90
        5
102
RTVSPost2010Prop44ColorRGB
 90
      255
102
RTVSPost2010PropOp44
 70
     1
102
RTVSPost2010Prop45
280
     0
102
RTVSPost2010PropOp45
 70
     1
102
RTVSPost2010Prop46
 90
       50
102
RTVSPost2010PropOp46
 70
     1
102
RTVSPost2010Prop47
 90
       50
102
RTVSPost2010PropOp47
 70
     1
102
RTVSPost2010Prop48
 90
       50
102
RTVSPost2010PropOp48
 70
     1
102
RTVSPost2010Prop49
280
     0
102
RTVSPost2010PropOp49
 70
     1
102
RTVSPost2010Prop50
 90
       50
102
RTVSPost2010PropOp50
 70
     1
102
RTVSPost2010Prop51ColorIndex
 90
      256
102
RTVSPost2010Prop51ColorRGB
 90
-16777216
102
RTVSPost2010PropOp51
 70
     0
102
RTVSPost2010Prop52
140
1.0
102
RTVSPost2010PropOp52
 70
     0
102
RTVSPost2010Prop53
 90
        2
102
RTVSPost2010PropOp53
 70
     1
102
RTVSPost2010Prop54
  1
strokes_ogs.tif
102
RTVSPost2010PropOp54
 70
     1
102
RTVSPost2010Prop55
280
     0
102
RTVSPost2010PropOp55
 70
     1
102
RTVSPost2010Prop56
140
1.0
102
RTVSPost2010PropOp56
 70
     1
102
RTVSPost2010Prop57
140
1.0
102
RTVSPost2010PropOp57
 70
     1
  0
ENDSEC
  0
EOF
